» » »

Easybeats - Friday On My Mind Tabs

Artists:  A B C D E F G H I J K L M N O P Q R S T U V W X Y Z # 

Friday On My Mind Tabs

(ver. 2) Click to play this song!
Easybeats
 Rating:
1.9/5 (30 votes)

 Friday On My Mind lessons Tabs too difficult? Try these video lessons and learn fast
 
                 Intro & Interlude                    1st & 2nd Verses
  Q=192
  $
  E5                                   E
 4/4
  Gtr I (Clean El. Gtr.)
  E E E E E E E E   E E E E E E E E    E E E E E E E E   E E E E E E E E
|-----------------|-----------------||-----------------|-----------------|
|-----------------|-----------------||-----------------|-----------------|
|-----------------|-----------------||-----------------|-----------------|
|---9---9---9---9-|---9---9---9---9-||---9---9---9---9-|---9---9---9---9-|
|-7---7---7---7---|-7---7---7---7---||-7---7---7---7---|-7---7---7---7---|
|-----------------|-----------------||-----------------|-----------------|


  A                 D                 E
  E E E E E E E E   E E E E E E E E   E E E E E E E E   E E E E E E E E
|-----------------|-----------------|-----------------|------------------|
|-----------------|-----------------|-----------------|------------------|
|-----------------|-----------------|-----------------|------------------|
|---7---7---7---7-|---7---7---7---9-|---9---9---9---9-|---9---9---9---9--|
|-0---0---0---0---|-5---0---5---0---|-7---7---7---7---|-7---7---7---7----|
|-----------------|-----------------|-----------------|------------------|


  A                 D                 G
  E E E E E E E E   E E E E E E E E   E E E E E E E E   E E E E E E E E
|-----------------|-----------------|-----------------|------------------|
|-----------------|-----------------|-----------------|------------------|
|-----------------|---------------0-|-----------------|------------------|
|---7---7---7---0-|---7---7---7-----|---5---5---5---5-|---5---5---5---5--|
|-0---0---0---0---|-5---0---5---0---|-----------------|------------------|
|-----------------|-----------------|-3---3---3---3---|-3---3---3---3----|


  B
  E E  E E  E  E E E    E  E  E  E E E E E
|--------------------|---------------------|
|--------------------|---------------------|
|---4----3-----2---1-|-----0---------------|
|--------------------|-----------4---3---2-|
|-2----2----2----2---|--2-----2----2---2---|
|--------------------|---------------------|
|
| Gtr II (Clean El. Gtr.)
| E Q.     +E  Q   E   +E  E +Q    E E E E
|--------------------|-----4-(4)---2-3-2---|
|---4------(4)-5---4-|-(4)---------------5-|
|--------------------|---------------------|
|--------------------|---------------------|
|--------------------|---------------------|
|--------------------|---------------------|


  E
  E E E E E E E E    E  E E E E E E E
|-----------------|--------------------|
|-----------------|--------------------|
|-----------------|--------------------|
|---2---2---2---2-|-----2---2---2---2--|
|-----------------|--------------------|
|-0---0---0---0---|--0----0---0---0----|
|
| W                 +H        H
|-----------------|--------------------|
|-3---------------|-(3)----------------|
|-----------------|--------------------|
|-----------------|--------------------|
|-----------------|--------------------|
|-----------------|--------------------|


  A
  E E E E E E E E   E E E E E E E E   E E E E E E E E    E  E E E Q  Q
|-----------------|-----------------|-----------------|-------------------|
|-----------------|-----------------|-----------------|-----2---2---------|
|---2---2---2---2-|---2---2---2---2-|---2---2---3---3-|-------------------|
|-----------------|-----------------|-----------------|-------------------|
|-0---0---0---0---|-0---0---0---0---|-0---0---0---0---|--0----0---0--0----|
|-----------------|-----------------|-----------------|-------------------|
|
| Gtr II
| W                 E E E E E E E E   W                 +H.          E E
|-----------------|-0-1-0---0-------|-----------------|-------------------|
|-----------------|-------3---3-1-0-|-2---------------|-(2)----------2s3--|
|-----------------|-----------------|-----------------|-------------------|
|-----------------|-----------------|-----------------|-------------------|
|-----------------|-----------------|-----------------|-------------------|
|-----------------|-----------------|-----------------|-------------------|


  D                Dm                       Dsus4
  Q  E E E E E E   E E E E Q   Q     Q  E E E E E E   E E E E Q   q
|----------0---0-|---1---1---------|------1---3---3-|---4---4----------|
|------3---------|---3---3---------|------3---3---3-|---3---3----------|
|----------------|-----------------|----------------|------------(1)---|
|-0--0---0---0---|-0---0---0---0---|-0--0---0---0---|-0---0---0--------|
|----------------|-----------------|----------------|------------------|
|----------------|-----------------|----------------|------------------|
|
| W                E E E E E E E E   W                W
|----------------|-5-6-5-3-5-3-----|----------------|------------------|
|-3--------------|-------------6-5-|-6--------------|------------------|
|----------------|-----------------|----------------|------------------|
|----------------|-----------------|----------------|------------------|
|----------------|-----------------|----------------|------------------|
|----------------|-----------------|----------------|------------------|


                              Chorus
  C     E       A  F# B  E     A
  Q  q  Q  Q    q  q  q  q     Q  E E Q  Q    Q  E E Q  Q
|-0--0--0--0--|-0--2--2--0--||-5--5-5-5--5--|-5--5-5-5--5---|
|-1--1--0--0--|-2--2--4--0--||-5--5-5-5--5--|-5--5-5-5--5---|
|-0--0--1--1--|-2--3--4--1--||-6--6-6-6--6--|-6--6-6-6--6---|
|-2-----2-----|-2--4--4--2--||-7--7-7-7--7--|-7--7-7-7--7---|
|-3-----2-----|-0--4--2--2--||-7--7-7-7--7--|-7--7-7-7--7---|
|-------0-----|----2-----0--||-5--5-5-5--5--|-5--5-5-5--5---|


  C#m/G#                              A
  Q  E E E E Q    Q   E E +E  E Q     Q  Q  Q  Q    Q  E E +E  E Q
|-4--4-4-4-4-4--|-4---4-4-(4)-4-4---|-5--5--5--5--|-5--5-5-(5)-5-5---|
|-5--5-5-5-5-5--|-5---5-5-(5)-5-5---|-5--5--5--5--|-5--5-5-(5)-5-5---|
|-6--6-6-6-6-6--|-6---6-6-(6)-6-6---|-6--6--6--6--|-6--6-6-(6)-6-6---|
|-6--6-6-6-6-6--|-6---6-6-(6)-6-6---|-7--7--7--7--|-7--7-7-(7)-7-7---|
|-4--4-4-4-4-4--|-4---4-4-(4)-4-4---|-7--7--7--7--|-7--7-7-(7)-7-7---|
|-4--4-4-4-4-4--|-4---4-4-(4)-4-4---|-5--5--5--5--|-5--5-5-(5)-5-5---|
|
| Gtr II
| W               E E E E  E  E E E   W             W
|---------------|-------------------|-------------|------------------|
|---------------|-2-3-2----2--------|-------------|------------------|
|---------------|-------4-----4-2-1-|-2-----------|------------------|
|---------------|-------------------|-------------|------------------|
|---------------|-------------------|-------------|------------------|
|---------------|-------------------|-------------|------------------|


  C#m/G#                           D
  Q  E E Q  Q    Q   E E Q   Q     Q  E E E E Q    Q  E E +E  E E  E
|-4--4-4-4--4--|-4---4-4-4---4---|-2--2-2-2-2-2--|-2--2-2-(2)-2-2------|
|-5--5-5-5--5--|-5---5-5-5---5---|-3--3-3-3-3-3--|-3--3-3-(3)-3-3-(0)--|
|-6--6-6-6--6--|-6---6-6-6---6---|-2--2-2-2-2-2--|-2--2-2-(2)-2-2------|
|-6--6-6-6--6--|-6---6-6-6---6---|-0--0-0-0-0-0--|-0--0-0-(0)-0-0------|
|-4--4-4-4--4--|-4---4-4-4---4---|---------------|---------------------|
|-4--4-4-4--4--|-4---4-4-4---4---|---------------|---------------------|
|
| W              E E E E E E E E   W               W
|--------------|-----------------|---------------|---------------------|
|--------------|-2-3-2---2-------|---------------|---------------------|
|--------------|-------4---4-2-1-|---------------|---------------------|
|--------------|-----------------|-4-------------|---------------------|
|--------------|-----------------|---------------|---------------------|
|--------------|-----------------|---------------|---------------------|


  F#7/C#                             Bm
  E E E E E E E E   E E E E E E q     Q  E E E E E E   E E E E E E q
|-0-0-0-0-0-0-0-0-|-0-0-0-0-0-0-0--|-^2--2-2-2-2-2-2-|-2-2-2-2-2-2-2---|
|-2-2-2-2-2-2-2-2-|-2-2-2-2-2-2-2--|-^3--3-3-3-3-3-3-|-3-3-3-3-3-3-3---|
|-3-3-3-3-3-3-3-3-|-3-3-3-3-3-3-3--|-^4--4-4-4-4-4-4-|-4-4-4-4-4-4-4---|
|-4-4-4-4-4-4-4-4-|-4-4-4-4-4-4-4--|-^4--4-4-4-4-4-4-|-4-4-4-4-4-4-4---|
|-4-4-4-4-4-4-4-4-|-4-4-4-4-4-4-4--|-^2--2-2-2-2-2-2-|-2-2-2-2-2-2-2---|
|-----------------|----------------|-----------------|-----------------|


  D                                   B
  E E E E E E E E   E E E E E E e E   E E E E E E E E   E E E E E E e E
|-5-5-5-5-5-5-5-5-|-5-5-5-5-5-5-5-x-|-7-7-7-7-7-7-7-7-|-7-7-7-7-7-7-7-x--|
|-7-7-7-7-7-7-7-7-|-7-7-7-7-7-7-7-x-|-7-7-7-7-7-7-7-7-|-7-7-7-7-7-7-7-x--|
|-7-7-7-7-7-7-7-7-|-7-7-7-7-7-7-7-x-|-8-8-8-8-8-8-8-8-|-8-8-8-8-8-8-8-x--|
|-7-7-7-7-7-7-7-7-|-7-7-7-7-7-7-7---|-9-9-9-9-9-9-9-9-|-9-9-9-9-9-9-9----|
|-5-5-5-5-5-5-5-5-|-5-5-5-5-5-5-5---|-9-9-9-9-9-9-9-9-|-9-9-9-9-9-9-9----|
|-----------------|-----------------|-7-7-7-7-7-7-7-7-|-7-7-7-7-7-7-7----|


  D                                   A
  E E E E E E E E   E E E E E E E E   E E E E E E E E   Q  E E E E Q
|-5-5-5-5-5-5-5-5-|-5-5-5-5-5-5-5-x-|-5-5-5-5-5-5-5-5-|-5--5-5-5-5-5---|
|-7-7-7-7-7-7-7-7-|-7-7-7-7-7-7-7-x-|-5-5-5-5-5-5-5-5-|-5--5-5-5-5-5---|
|-7-7-7-7-7-7-7-7-|-7-7-7-7-7-7-7-x-|-6-6-6-6-6-6-6-6-|-6--6-6-6-6-6---|
|-7-7-7-7-7-7-7-7-|-7-7-7-7-7-7-7---|-7-7-7-7-7-7-7-7-|-7--7-7-7-7-7---|
|-5-5-5-5-5-5-5-5-|-5-5-5-5-5-5-5---|-7-7-7-7-7-7-7-7-|-7--7-7-7-7-7---|
|-----------------|-----------------|-5-5-5-5-5-5-5-5-|-5--5-5-5-5-5---|


                                          Bridge
  E7                                       Am            D
  E E E E +E  E E E   E E E E +E  E E E    W             W
|-0-0-0-0-(0)-0-0-0-|-0-0-0-0-(0)-0-0---||-0-----------|-2------------|
|-5-5-5-5-(5)-5-5-5-|-5-5-5-5-(5)-5-5-5s||=1-----------|-3------------|
|-7-7-7-7-(7)-7-7-7-|-7-7-7-7-(7)-7-7---||-2-----------|-2------------|
|-6-6-6-6-(6)-6-6-6-|-6-6-6-6-(6)-6-6---||-2-----------|-0------------|
|-7-7-7-7-(7)-7-7-7-|-7-7-7-7-(7)-7-7---||-0-----------|--------------|
|-------------------|-------------------||-------------|--------------|
|
| Gtr II
|                                          PM---------------------|
| W                   W                    Q  Q  Q  Q    Q  Q  Q  Q
|-------------------|-------------------||-------------|--------------|
|-------------------|-------------------||-------------|--------------|
|-------------------|-------------------||-------------|--------------|
|-------------------|-------------------||-------------|--------------|
|-------------------|-------------------||-------------|--------------|
|-------------------|-------------------||-5--0--5--0--|-5--0--5--0---|


            D.S. al Coda   &
            D.S. al Coda
  G             E7            N.C.
  W             q  Q  H       W
|-3-----------|------------||------||
|-3-----------|-5----------||------||
|-4-----------|-7----------||------||
|-5-----------|-6----------||------||
|-------------|-7----------||------||
|-------------|------------||------||
|
| PM------------|
| Q  Q  Q  Q    q  Q  H       W
|-------------|------------||------||
|-------------|------------||------||
|-------------|------------||------||
|-------------|------------||------||
|-------------|------------||------||
|-5--0--5--0--|-0----------||------||


  A                             C#m/G#
  Q  E E Q  Q    Q  E E Q  Q    Q  E E E E Q    Q   E E +E  E Q
|-5--5-5-5--5--|-5--5-5-5--5--|-4--4-4-4-4-4--|-4---4-4-(4)-4-4----|
|-5--5-5-5--5--|-5--5-5-5--5--|-5--5-5-5-5-5--|-5---5-5-(5)-5-5----|
|-6--6-6-6--6--|-6--6-6-6--6--|-6--6-6-6-6-6--|-6---6-6-(6)-6-6----|
|-7--7-7-7--7--|-7--7-7-7--7--|-6--6-6-6-6-6--|-6---6-6-(6)-6-6----|
|-7--7-7-7--7--|-7--7-7-7--7--|-4--4-4-4-4-4--|-4---4-4-(4)-4-4----|
|-5--5-5-5--5--|-5--5-5-5--5--|-4--4-4-4-4-4--|-4---4-4-(4)-4-4----|
|
| W              W              W               E E E E  E  E E E
|--------------|--------------|---------------|--------------------|
|--------------|--------------|---------------|-2-3-2----2---------|
|--------------|--------------|---------------|-------4-----4-2-1--|
|--------------|--------------|---------------|--------------------|
|--------------|--------------|---------------|--------------------|
|--------------|--------------|---------------|--------------------|


  A                             C#m/G#
  Q  E E Q  Q    Q  E E Q  Q    Q  E E E E Q    Q   E E +E  E Q
|-5--5-5-5--5--|-5--5-5-5--5--|-4--4-4-4-4-4--|-4---4-4-(4)-4-4----|
|-5--5-5-5--5--|-5--5-5-5--5--|-5--5-5-5-5-5--|-5---5-5-(5)-5-5----|
|-6--6-6-6--6--|-6--6-6-6--6--|-6--6-6-6-6-6--|-6---6-6-(6)-6-6----|
|-7--7-7-7--7--|-7--7-7-7--7--|-6--6-6-6-6-6--|-6---6-6-(6)-6-6----|
|-7--7-7-7--7--|-7--7-7-7--7--|-4--4-4-4-4-4--|-4---4-4-(4)-4-4----|
|-5--5-5-5--5--|-5--5-5-5--5--|-4--4-4-4-4-4--|-4---4-4-(4)-4-4----|
|
| W              W              W               E E E E  E  E E E
|--------------|--------------|---------------|--------------------|
|--------------|--------------|---------------|-2-3-2----2---------|
|-2------------|--------------|---------------|-------4-----4-2-1--|
|--------------|--------------|---------------|--------------------|
|--------------|--------------|---------------|--------------------|
|--------------|--------------|---------------|--------------------|


  A                             C#m/G#
  Q  E E Q  Q    Q  E E Q  Q    Q  E E E E Q    Q   E E +E  E Q
|-5--5-5-5--5--|-5--5-5-5--5--|-4--4-4-4-4-4--|-4---4-4-(4)-4-4----*|
|-5--5-5-5--5--|-5--5-5-5--5--|-5--5-5-5-5-5--|-5---5-5-(5)-5-5----*|
|-6--6-6-6--6--|-6--6-6-6--6--|-6--6-6-6-6-6--|-6---6-6-(6)-6-6----*|
|-7--7-7-7--7--|-7--7-7-7--7--|-6--6-6-6-6-6--|-6---6-6-(6)-6-6----*|
|-7--7-7-7--7--|-7--7-7-7--7--|-4--4-4-4-4-4--|-4---4-4-(4)-4-4----*|
|-5--5-5-5--5--|-5--5-5-5--5--|-4--4-4-4-4-4--|-4---4-4-(4)-4-4----*|
|
| W              W              W               E E E E  E  E E E
|--------------|--------------|---------------|--------------------*|
|--------------|--------------|---------------|-2-3-2----2---------*|
|-2------------|--------------|---------------|-------4-----4-2-1--*|
|--------------|--------------|---------------|--------------------*|
|--------------|--------------|---------------|--------------------*|
|--------------|--------------|---------------|--------------------*|            
Submit corrections


        Friday On My Mind lessons Hard to play? Try these video lessons and learn fast Friday On My Mind lessons
        
↑ Back to top | Tablatures and chords for acoustic guitar and electric guitar, ukulele, drums are parodies/interpretations of the original songs. You may use it for private study, scholarship, research or language learning purposes only