Home » E » Earth »

Earth - Torn By The Fox Of The Crescent Moon Tabs

Artists:  A B C D E F G H I J K L M N O P Q R S T U V W X Y Z # 

Torn By The Fox Of The Crescent Moon Tabs

(ver. 1) Click to play this song!
Earth
[Intro]
 
Eb|---------------------------------------------------|
Bb|---------------------------------------------------|
Gb|---------------------------------------------------|
Db|---------------------------------5-4-5~-4-5h-4p-2~-|
Ab|---------------------------------------------------|
Eb|-0-0-0-0-0-0-0-0-0-0-0-0-0-0-0-0-------------------|   x4
 
[Riff B]
 
Eb|-----------12NH--------------12NH-|
Bb|----------------12NH----12NH------|
Gb|---------------------15-----------|
Db|-5-4-2----------------------------|
Ab|-3-2-0----------------------------|
Eb|----------------------------------|  x5
 
[Transition]
 
 
Eb|-----------------|
Bb|-----------------|
Gb|-----------------|
Db|-4-5-2-5-4-------|
Ab|-2-3-0-3-2-5-4-2-|
Eb|-----------3-2-0-|
 
[Riff C&D]
 
Eb|---------------------------------------------|
Bb|---------------------------------------------|
Gb|---------------------------------------------|
Db|---------5~--0-2h-5~--------------4-5~---4-5~|
Ab|--------------------------------2------3-----|
Eb|-0-0-0-0----------------0-0-0-0--------------|  x4
 
[Main Riff]
 
Eb|-----------------------------------------------------|
Bb|-----------------------------------------------------|
Gb|-----------------------------------------------------|
Db|------------------------7-6~-5-7h~-7-10-12-10-9-5~-2-|
Ab|-----------------------------------------------------|
Eb|-0-0-0-0-0-0-0-0-0-0-0--5-4~-------------------------|  x4
 
[Riff C&D]
 
Eb|---------------------------------------------|
Bb|---------------------------------------------|
Gb|---------------------------------------------|
Db|---------5~--0-2h-5~--------------4-5~---4-5~|
Ab|--------------------------------2------3-----|
Eb|-0-0-0-0----------------0-0-0-0--------------|  x4
 
[Main Riff]
 
Eb|-----------------------------------------------------|
Bb|-----------------------------------------------------|
Gb|-----------------------------------------------------|
Db|------------------------7-6~-5-7h~-7-10-12-10-9-5~-2-|
Ab|-----------------------------------------------------|
Eb|-0-0-0-0-0-0-0-0-0-0-0--5-4~-------------------------|  x4
 
[Intro Riff]
 
Eb|---------------------------------------------------|
Bb|---------------------------------------------------|
Gb|---------------------------------------------------|
Db|---------------------------------5-4-5~-4-5h-4p-2~-|
Ab|---------------------------------------------------|
Eb|-0-0-0-0-0-0-0-0-0-0-0-0-0-0-0-0-------------------|  x4
 
[Riff C&D]
 
Eb|---------------------------------------------|
Bb|---------------------------------------------|
Gb|---------------------------------------------|
Db|---------5~--0-2h-5~--------------4-5~---4-5~|
Ab|--------------------------------2------3-----|
Eb|-0-0-0-0----------------0-0-0-0--------------| x4
 
[Intro Riff]
 
Eb|---------------------------------------------------|
Bb|---------------------------------------------------|
Gb|---------------------------------------------------|
Db|---------------------------------5-4-5~-4-5h-4p-2~-|
Ab|---------------------------------------------------|
Eb|-0-0-0-0-0-0-0-0-0-0-0-0-0-0-0-0-------------------|  x4
 
[Outro]
 
Eb|-----------12NH--------------12NH-----------------|
Bb|----------------12NH----12NH----------------------|
Gb|---------------------15---------------------------|
Db|-5-4-2----------------------------4-5-2-5-4-------|
Ab|-3-2-0----------------------------2-3-0-3-2-5-4-2-|
Eb|--------------------------------------------3-2-0-| 
            
Submit corrections

↑ Back to top | Tablatures and chords for acoustic guitar and electric guitar, ukulele, drums are parodies/interpretations of the original songs. You may use it for private study, scholarship, research or language learning purposes only