» » »

Earth - Tethered To The Polestar Tabs

Artists:  A B C D E F G H I J K L M N O P Q R S T U V W X Y Z # 

Tethered To The Polestar Tabs

(ver. 1) Click to play this song!
Earth
 Rating:
4.4/5 (7 votes)

 Tethered To The Polestar  lessons Tabs too difficult? Try these video lessons and learn fast
 
                [Intro 1](Played twice, Harmonics, E,A,B)
e|----------------------|
B|--------<12&gt--------|
G|----------------------|
D|----<7>---------------|
A|-<7>------------------|
E|----------------------|

Then

[Intro 2](Played twice, D,F,E)
e|--------0---|
B|------------|
G|------------|
D|------3-----|
A|---5--------|
E|------------|

[Verse]
e|-------------------7-8---------------0--------------------0---0-----0-----0----------------------|
B|---------------0-----------3---3-------0------3---3-----2-------0-----0-----0--------------------|
G|-------------------------4---4---4-3-----1--4---4---4-3-----1-----1-----2-----1------------------|
D|-----0------------------------------------------------------------------------------0---0-----0--|
A|---7---\3-------------------------------------------------------------------------2---2---2--1---|
E|------------0------------------------------------------------------------------------------------|

[With the Band]
    first (T think)     then this x3               then the outro
e|-----------------|--------------------------|----------------------|
B|-----------------|--------------------------|----------------------|
G|-----------------|--------------------------|----------------------|
D|--0----0---------|--2--0------0-------------|--3--2--3--5--3--3--5-|
A|-----2-----0---0-|--3-------2-----0----0----|--3--3--3--5--3--2--5-|
E|--3------2---1---|--------3-----2----1---0--|----------------------|            
Submit corrections


        Tethered To The Polestar  lessons Hard to play? Try these video lessons and learn fast Tethered To The Polestar  lessons
        
↑ Back to top | Tablatures and chords for acoustic guitar and electric guitar, ukulele, drums are parodies/interpretations of the original songs. You may use it for private study, scholarship, research or language learning purposes only