Home » E » Earth »

Earth - Song 4 Tabs

Artists:  A B C D E F G H I J K L M N O P Q R S T U V W X Y Z # 

Song 4 Tabs

(ver. 1) Click to play this song!
Earth
[Main riff]
e|---------------------------|
B|---------------------------|
G|---------------------------|
D|---------------------------|  x3
A|---------------------------|
E|--12-10-8-5---12-10-8-10---|

e|----------------------------------|
B|----------------------------------|
G|----------------------------------|
D|----------------------------------|  X2
A|----------------------------------|
E|--12-10-8-5-5---12-10-8-10-10-----|

e|---------------------------------------------------------------------------|
B|---------------------------------------------------------------------------|
G|---------------------------------------------------------------------------|
D|---------------------------------------------------------------------------|
A|---------------------------------------------------------------------------|
E|--12-10-8-12--12-10-8-10--12-10-8-5-5--55-7-8-88-88/3-33-33\10-1010--------|

e|-------------------------------------------------|
B|-------------------------------------------------|
G|-------------------------------------------------|
D|-------------------------------------------------|
A|-------------------------------------------------|
E|--12-10-8-5-5-55-8-8-8-88/3-3-33\10-1010---------|
            
Submit corrections

↑ Back to top | Tablatures and chords for acoustic guitar and electric guitar, ukulele, drums are parodies/interpretations of the original songs. You may use it for private study, scholarship, research or language learning purposes only