» » »

Earth - Omens And Portents Ii Carrion Crow Tabs

Artists:  A B C D E F G H I J K L M N O P Q R S T U V W X Y Z # 

Omens And Portents Ii Carrion Crow Tabs

(ver. 1) Click to play this song!
Earth
 Rating:
3.7/5 (26 votes)

 Omens And Portents Ii Carrion Crow  lessons Tabs too difficult? Try these video lessons and learn fast
 
                  INTRO
d#|--------------------------------------|
A#|--------------------------------------|
F#|--------------------------------------|
C#|-----6b~------4b~-----6b~------4b~----|
G#|---5--------3-------5--------3--------|
D#|-0-------7*-------0-------7*-------0~-|

  RIFF 1
d#|--------------------|
A#|--------------------|
F#|------7h9-9/11--9~--|
C#|----9-----7/9 -(9~)-|
G#|---------------(7~)-|
D#|-0~------------(0~)-|

  RIFF 2
d#|--------------------(0~)-|
A#|-----------------7---5~--|
F#|---4p2-----7--4-(6)-(4~)-|
C#|-------5-7----------(0~)-|
G#|-------------------------|
D#|-0~----------------------|

  Riff 3
d#|--------------------------0~-|
A#|----------3~--3~----------5~-|
F#|-------0--2~--2~-------4--4~-|
C#|--0h2-(0)-0~--0~---0h2----0~-|
G#|-----------------------------|
D#|-----------------------------|            
Submit corrections


        Omens And Portents Ii Carrion Crow  lessons Hard to play? Try these video lessons and learn fast Omens And Portents Ii Carrion Crow  lessons
        
↑ Back to top | Tablatures and chords for acoustic guitar and electric guitar, ukulele, drums are parodies/interpretations of the original songs. You may use it for private study, scholarship, research or language learning purposes only