» » »

Earth - Old Black Tabs

Artists:  A B C D E F G H I J K L M N O P Q R S T U V W X Y Z # 

Old Black Tabs

(ver. 1) Click to play this song!
Earth
 Rating:
2.8/5 (24 votes)

 Old Black  lessons Tabs too difficult? Try these video lessons and learn fast
 
                Should be pretty close.


3x 0:00-2:01
d#|----------------3----------------------------------------------------------|
A#|--0------0------0------------------------------------3/5-3-0---------------|
F#|--0------0----0-0-----------------------------0~---------------------------|
C#|--2------2----0-0---------2-0-(2)-----------2-----0---------(2)--------2---|
G#|--2------2------2-------3------2------0-2-3------------------2-----0-2-----|
D#|--0------0------3-----0--------0-----------------------------0-------------|


1x 2:02-2:42
d#|----------------3----------------------------------------------------------|
A#|--0------0------0------------------------------------3/5-3-0---------------|
F#|--0------0----0-0-----------------------------0~---------------------------|
C#|--2------2----0-0---------2-0-(2)-----------2-----0---------(2)--------2-0-|
G#|--2------2------2-------3------2------0-2-3------------------2-----0-2-----|
D#|--0------0------3-----0--------0-----------------------------0-------------|


4x 2:43-3:47
d#|------------------------------------|
A#|--1--------------0------------------|
F#|--2--------0h2-5--------------------|
C#|--2------2--------(0)---------2-0---|
G#|-------------------2--------3-------|
D#|-------------------3------0---------|


1x 3:48-4:20
d#|-------------------------------------------------------------------|
A#|---------------------------------------------------0---------------|
F#|----------------------------2/4-7-4-5--------0h2-5-----------------|
C#|---------------2-0--------4----------------2--------(2)---------2--|
G#|--3------0-2-3-----2---------------------------------2------0-2----|
D#|-----------------------------------------------------0-------------|


3x 4:21-6.23
d#|----------------3----------------------------------------------------------|
A#|--0------0------0------------------------------------3/5-3-0---------------|
F#|--0------0----0-0-----------------------------0~---------------------------|
C#|--2------2----0-0---------2-0-(2)-----------2-----0---------(2)--------2---|
G#|--2------2------2-------3------2------0-2-3------------------2-----0-2-----|
D#|--0------0------3-----0--------0-----------------------------0-------------|


7x 6:24-8:15
d#|------------------------------------|
A#|-----5-7\5-3-5----------------------|
F#|---------------------7--------------|
C#|-------------------5---4-0-2/4-2~---|
G#|------------------------------------|
D#|--0---------------------------------|


1x 8:16-8:50
d#|-------------------0----------|
A#|----------------------0-------|
F#|------------------------------|
C#|---------------2\-------------|
G#|-----------0-2----------------|
D#|--0---------------------------|
            
Submit corrections


        Old Black  lessons Hard to play? Try these video lessons and learn fast Old Black  lessons
        
↑ Back to top | Tablatures and chords for acoustic guitar and electric guitar, ukulele, drums are parodies/interpretations of the original songs. You may use it for private study, scholarship, research or language learning purposes only