» » »

Early November - No Good At Saying Sorry One More Chance Tabs

Artists:  A B C D E F G H I J K L M N O P Q R S T U V W X Y Z # 

No Good At Saying Sorry One More Chance Tabs

(ver. 1) Click to play this song!
Early November
 Rating:
4/5 (4 votes)

 No Good At Saying Sorry One More Chance lessons Tabs too difficult? Try these video lessons and learn fast
 
                              No good at saying sorry - The Early November

i watched a video of ace playing this on acoustic and i just look at what he was playing
played what i thought was right so here it is.. this is my first tab and i don't want
do a whole strumming pattern so i put the video here and the chords are down there so 
figure it out its not too difficult


Tuning:half step down- Eb Ab Db Gb Bb Eb

Intro/Verse
         Am   C
e|--0----0----0----3-----------------------------------------------------------|
B|--1----1----1----0-----------------------------------------------------------|
G|--2----2----0----0-----------------------------------------------------------|
D|--3----2----2----3-----------------------------------------------------------|
A|--3----0----3----2-----------------------------------------------------------|
E|--x----x----X----3-----------------------------------------------------------|
     Chorus
                    F
e|---3----3----3----1------------------------------------------------------------|
B|---3----3----3----1------------------------------------------------------------|
G|---0----0----0----2------------------------------------------------------------|
D|---2----0----2----3------------------------------------------------------------|
A|---3----0----0----3------------------------------------------------------------|
E|---x----2----x----1------------------------------------------------------------|
    Bridge

e|---3----3--------------------------------------------------------------------|
B|---3----3--------------------------------------------------------------------|
G|---0----0--------------------------------------------------------------------|
D|---0----0--------------------------------------------------------------------|
A|---2----3--------------------------------------------------------------------|
E|---3----1--------------------------------------------------------------------|

Heres how the song goes in order and the amount of times you play it:
Intro x2
Verse x2
Chorus x1
Intro x1
Verse x2
Chorus x1
Bridge x3
Chorus x1


| /  slide up
| \  slide down
| h  hammer-on
| p  pull-off
| ~  vibrato
| +  harmonic
| x  Mute note

enjoy! rate if you like
            
Submit corrections


        No Good At Saying Sorry One More Chance lessons Hard to play? Try these video lessons and learn fast No Good At Saying Sorry One More Chance lessons
        
↑ Back to top | Tablatures and chords for acoustic guitar and electric guitar, ukulele, drums are parodies/interpretations of the original songs. You may use it for private study, scholarship, research or language learning purposes only