» » »

Early November - Figure It Out Tabs

Artists:  A B C D E F G H I J K L M N O P Q R S T U V W X Y Z # 

Figure It Out Tabs

(ver. 1) Click to play this song!
Early November
 Rating:
3.6/5 (5 votes)
    Figure It Out lessons Tabs too difficult? Try these video lessons and learn fast
                The Early November

This is my first tab. Its pretty close but not perfect. Never the less, I think it 
really good.

The tuning is dropped down a half-step, but in the video it is standard.


[Verse]- didn't tab the rythm, you'll have to figure it out.(no pun intended)
 e|----------------------------------------------------------------------------|
 B|---7------10---------0---0--------------------------------------------------|
 G|---7-------9---------2---4--------------------------------------------------|
 D|---0-------0---------0---0--------------------------------------------------|
 A|---------------------2---2--------------------------------------------------|
 E|---7-------9-------------3--------------------------------------------------|

 [chorus]- let ring throughout
 e|--5p-2-------------------------0-----------------0---------------------0------|
 B|---------5---3---0---------3-------0---------7-------7----10------10----------|
 G|-------4-----------------6-----------------7-------------------9--------------|
 D|-----------0---0-------0-----0---0-------0-----0---0---------0---0---0--------|
 A|------------------------------------------------------------------------------|
 E|--3-----------------/5----------------/7----------------/9--------------------|


 [Outro]-Once again, just chords
 E|----------------------------------------------------------------------------|
 B|-------------------7------10------------------------------------------------|
 G|---4-------6-------7-------9------------------------------------------------|
 D|---0-------0-------0-------0------------------------------------------------|
 A|---2-------4----------------------------------------------------------------|
 E|---3-------5-------7-------9------------------------------------------------|


There you go. Enjoy.
            
Submit corrections

↑ Back to top | Tablatures and chords for acoustic guitar and electric guitar, ukulele, drums are parodies/interpretations of the original songs. You may use it for private study, scholarship, research or language learning purposes only