» » »

Early November - Dinner At The Money Table Tabs

Artists:  A B C D E F G H I J K L M N O P Q R S T U V W X Y Z # 

Dinner At The Money Table Tabs

(ver. 1) Click to play this song!
Early November
 Rating:
4/5 (11 votes)
    Dinner At The Money Table lessons Tabs too difficult? Try these video lessons and learn fast
                Tuning half step down (EbAbDbGbBbEb)

Here are the notes the strings play in the opening

Eb|-12-10-9-10-9-------12-10-9-10-9---------12-
Bb|--------------10-10--------------12-10-9----
Gb|--------------------------------------------
Db|--------------------------------------------
Ab|--------------------------------------------
Eb|--------------------------------------------

There are just two parts to this song

VERSES 
Eb|-0--0--0--0- 
Bb|-0--0--0--0- 
Gb|-2--6--6--1- 
Db|-2--6--7--2- 
Ab|-0--4--5--2- 
Eb|-x--x--x--0- 

CHORUS 
Eb|-0--0------0- 
Bb|-x--0------0- 
Gb|-7--2-[x3]-1- 
Db|-7--2------2- 
Ab|-5--0------2- 
Eb|-----------0- 

The strumming and what not are pretty easy to figure out, it's a rather simple song.
If you haven't purchased this album yet, do it! It's amazing.
            
Submit corrections

↑ Back to top | Tablatures and chords for acoustic guitar and electric guitar, ukulele, drums are parodies/interpretations of the original songs. You may use it for private study, scholarship, research or language learning purposes only