Home » E » Earl Knight And George Kelly »

Earl Knight And George Kelly - Let The Good Times Roll Part 1 Tabs

Artists:  A B C D E F G H I J K L M N O P Q R S T U V W X Y Z # 

Let The Good Times Roll Part 1 Tabs

(ver. 1) Click to play this song!
Earl Knight And George Kelly
e|------------------------------------|
b|------------------------------------|
g|------------------------------------|
D|------1--1--3--1-----1--------------|
A|---3--------------3-----3--1--2--3--|
E|-1----------------------------------| x4

e|------------------------------------|
b|------------------------------------|
g|------1--1--3--1-----1--------------|
D|---3--------------3-----3--1--2--3--|
A|-1----------------------------------| x2
E|------------------------------------|

e|------------------------------------|
b|------------------------------------|
g|------------------------------------|
D|------1--1--3--1-----1--------------|
A|---3--------------3-----3--1--2--3--|
E|-1----------------------------------| x2

e|------------------------------------|
b|------------------------------------|
g|-------3--3--5--3----3--------------|
D|----5-------------5-----5--3--4--5--|
A|-3----------------------------------|
E|------------------------------------| x1

e|------------------------------------|
b|------------------------------------|
g|------1--1--3--1-----1--------------|
D|---3--------------3-----3--1--2--3--|
A|-1----------------------------------| x1
E|------------------------------------|

e|------------------------------------|
b|------------------------------------|
g|------------------------------------|
D|------1--1--3--1-----1--------------|
A|---3--------------3-----3--1--2--3--|
E|-1----------------------------------| x1


e|------------------------------------|
b|------------------------------------|
g|------------------------------------|
D|------------------------------------|
A|------3--3--3-----------------------|
E|-1----------------------------------| x1            
Submit corrections

↑ Back to top | Tablatures and chords for acoustic guitar and electric guitar, ukulele, drums are parodies/interpretations of the original songs. You may use it for private study, scholarship, research or language learning purposes only