Home » E » Eagle Eye Cherry »

Eagle Eye Cherry - Save Tonight Bass

Artists:  A B C D E F G H I J K L M N O P Q R S T U V W X Y Z # 

Save Tonight Bass

(ver. 2) Click to play this song!
Eagle Eye Cherry
 Rating:
4/5 (4 votes)
                Eagle Eye Cherry – Save Tonight

This song is really easy, all you need to do is listen to the
song and work out how many times each riff is played.
I’m pretty sure this tab is 100% correct.

Into
G----------------------
D------3--------------
A-0--------3----------
E---------------3-----

Verse
G----------------------
D------3--------------
A-0--------3----------
E---------------3-----

Chorus 
G--------------------------------
D----------3333----------------
A---0000--------3333---------
E------------------------3333--

Middle 8
G----------------------
D------3--------------
A-0--------3----------
E---------------3-----
            
Submit corrections

↑ Back to top | Tablatures and chords for acoustic guitar and electric guitar, ukulele, drums are parodies/interpretations of the original songs. You may use it for private study, scholarship, research or language learning purposes only