Home » D » Dzem »

Dzem - Wehikul Czasu Tabs

Artists:  A B C D E F G H I J K L M N O P Q R S T U V W X Y Z # 

Wehikul Czasu Tabs
Version #1
Dzem


Copy URL
Intro / Wstep:

     A            E         A  f#     D               A            E             D       A
e1|----------------------------------------------------------------------------------------|
B2|-----------2-----------------------3~--3--------------------2-----------------3---3---2-|
G3|--2--2-----2-----------------------2~--2h4p2-------2--2-----2-----------------2h4-2---2-|
D4|--2--2-----2---2--2------2----2-4--0--------4p2----2--2-----2---2--2------2---0-----4-2-|
A5|--0--0h3/4-----2--2------2--4------------------3/4-0--0h3/4-----2--2------2-----------0-|
E6|---------------0--0--3/4----2-----------------------------------0--0--3/4---------------|

Basic ver. / wersja uproszczona:

e1|------------------------------------------------------------------------------------------|
B2|------------------------------------------------------------------------------------------|
G3|-----------2-----------------------2----4-2------------------2-----------------2-h4-2---2-|
D4|--2--------2-------------2----2-4--0--------4-2-----2--------2-------------2---0------4-2-|
A5|--0--0-3/4-----2---------2----------------------3-4-0--0-3/4-----2---------2------------0-|
E6|---------------0--0--3/4----2------------------------------------0--0--3/4----------------|

solo:

e|---------------------------------------------------10-12b14-12b14-12-----------------------------------------|
B|---------10--12b14-14r12--10--12~ ------10-12-10-12-------------------14r12-10-12-------10-13r12-10-12----10-|
G|-9--9h11--------------------------9-11---------------------------------------------9-11----------------11----|
D|-------------------------------------------------------------------------------------------------------------|
A|-------------------------------------------------------------------------------------------------------------|
E|-------------------------------------------------------------------------------------------------------------|            
Submit corrections

↑ Back to top | Tablatures and chords for acoustic guitar and electric guitar, ukulele, drums are parodies/interpretations of the original songs. You may use it for private study, scholarship, research or language learning purposes only