Home » D » Dzem »

Dzem - Czlowieku Co Sie Z Toba Dzieje Bass

Artists:  A B C D E F G H I J K L M N O P Q R S T U V W X Y Z # 

Czlowieku Co Sie Z Toba Dzieje Bass
Version #1
Dzem


Copy URL
It's very simple and nice song.

g|-----------------------------------------------|
d|-----------------------------------------------|
a|---1-2-3-4---4-5-6-7---1-2-3-4---4-5-6-7-------|
e|-0---------0---------0---------0---------------|

Outro:

g|------------------------------------|
d|------------------------------------|
a|-1-2-3h-----------------------------|
e|---------0--------------------------|
            
Submit corrections

↑ Back to top | Tablatures and chords for acoustic guitar and electric guitar, ukulele, drums are parodies/interpretations of the original songs. You may use it for private study, scholarship, research or language learning purposes only