Home » D » Dzem »

Dzem - List Do M Tabs

Artists:  A B C D E F G H I J K L M N O P Q R S T U V W X Y Z # 

List Do M Tabs
Version #1
Dzem


Copy URL
[Intro]
E|-----------------|-----------------|-----------------|-----------------|
B|-----------------|-----------------|-----------------|-----------------|
G|------4-5~-------|-4p2h4/5/4-------|------4--5~------|--4/5/7/5/4/5/4-2|
D|----7------------|-----------5-5/7~|----7------------|-----------------|
A|-/7--------------|-----------------|-/7--------------|-----------------|
E|-----------------|-----------------|-----------------|-----------------|
 
E|------------------|-------------------|--------------------|-----------------|
B|-----8------------|-------------------|--------------------|--8b10-----------|
G|--7b9--7b9r5------|-7b9r-5/4/5/7/5/4/2|-----5-----7b9-7-5/4|-----------------|
D|------------------|-------------------|-------7------------|-----------------|
A|------------------|-------------------|-5/7----------------|-----------------|
E|------------------|-------------------|--------------------|-----------------|
[Zwrotka]
E|---------5h7p5---|--------3h5p3----|-1---0--0--------|-----------------|
B|-------5-------5-|------3-------3--|-1---3---3-------|-----------------|
G|-----5-----------|----4------------|-2---2----2------|-----------------| X3
D|-/7--------------|-/5--------------|-3---0------0----|-----------------|
A|-----------------|-----------------|-----------------|-----------------|
E|-----------------|-----------------|-----------------|-----------------|
 
E|---------5h7p5---|--------3h5p3----|-1---1-----------|-----------------|
B|-------5-------5-|------3-------3--|-1---1-----------|-----------------|
G|-----5-----------|----4------------|-2---2-----------|-----------------|
D|-/7--------------|-/5--------------|-3---3-----------|-----------------|
A|-----------------|-----------------|-----------------|-----------------|
E|-----------------|-----------------|-----------------|-----------------|
 
[Zwrotka]
E|---------5h7p5---|--------3h5p3----|-1---0--0--------|-----------------|
B|-------5-------5-|------3-------3--|-1---3---3-------|-----------------|
G|-----5-----------|----4------------|-2---2----2------|-----------------| X3
D|-/7--------------|-/5--------------|-3---0------0----|-----------------|
A|-----------------|-----------------|-----------------|-----------------|
E|-----------------|-----------------|-----------------|-----------------|
 
E|---------5h7p5---|--------3h5p3----|-1---1-----------|-----------------|
B|-------5-------5-|------3-------3--|-1---1-----------|-----------------|
G|-----5-----------|----4------------|-2---2-----------|-----------------|
D|-/7--------------|-/5--------------|-3---3-----------|-----------------|
A|-----------------|-----------------|-3---3-----------|-----------------|
E|-----------------|-----------------|-1---1-----------|-----------------|
 
[Bridge]
E|-1----1--0----------|--1-------1------|-1----0-------0-----|----------1--0-------|
B|-1----1--0----------|--3-----3--3-----|-1----0-------1-----|----1-----1--0-------|
G|-2----2--1----------|--2----2----2----|-2----1-------2-----|---2-2----2--1-------|
D|-3----3--2----------|--0--0-----------|-3----2-------2-----|--2---2---3--2-------|
A|-3----3--2----------|-----------------|-3----2-------0-----|-0--------3--2-------|
E|-1----1--0----------|-----------------|-1----0-------------|----------1--0-------|
 
E|-3------------1---0---|-1---1-1-1-1---------|-3----------------|
B|-3-------3----1---0---|-3---3-3-3-3---------|-3----------------|
G|-0------0-0---2---1---|-2---2-2-2-2---------|-0----------------|
D|-0-----0---0--3---2---|-0-0--0-0-0-0--------|-0----------------|
A|-2------------3---2---|---------------------|-2----------------|
E|-3---3--------1---0---|---------------------|-3----------------|
 
[Solo]
E|-12-12/-10-10/-7b-8-7-5---------|
B|-10-10/--8--8/-7--9-7-5---------|
G|--------------------------------|
D|--------------------------------|
A|--------------------------------|
E|--------------------------------|
 
 
E|----------------------|--------------------------|-----------------------------|-----------------|
B|-5--------------------|-5------------------------|----------------5/3----------|-----------------|
G|----7-5-4---5-7-------|------4--/7-7-----5-7-----|-7b9----7-5-7b9-----5/7------|-----------------|
D|----------------------|--7v----------------------|-------------------------7---|-----------------|
A|----------------------|--------------------------|-----------------------------|-----------------|
E|----------------------|--------------------------|-----------------------------|-----------------|
 
E|-----------------------|-----------------------------------|-----------------|----------------------------|
B|-10-13----10-----------|-10h13p10----10-------10h13p10-----|----10---13-12-10-13-10--13-15-13-------------|
G|-------12----12b14-----|----------12----12b14--------------|-12---12-------------|------------------------|
D|-----------------------|-----------------------------------|-----------------|----------------------------|
A|-----------------------|-----------------------------------|-----------------|----------------------------|
E|-----------------------|-----------------------------------|-----------------|----------------------------|
 
E|-15--------------15------------------|-15b17----------------|-----------------|-----------------|
B|----15b17---15p13---15b17--15p13-----|----------------------|-----------------|-----------------|
G|-------------------------------------|----------------------|-----------------|-----------------|
D|-------------------------------------|----------------------|-----------------|-----------------|
A|-------------------------------------|----------------------|-----------------|-----------------|
E|-------------------------------------|----------------------|-----------------|-----------------|
 
[Zwrotka]
E|---------5h7p5---|--------3h5p3----|-1---1---0-0-------|-----------------|
B|-------5-------5-|------3-------3--|-1---1---3---3-----|-----------------|
G|-----5-----------|----4------------|-2---2---2-----2---|-----------------| X3
D|-/7--------------|-/5--------------|-3---3---0-------0-|-----------------|
A|-----------------|-----------------|-------------------|-----------------|
E|-----------------|-----------------|-------------------|-----------------|
 
E|---------5h7p5---|--------3h5p3----|-1---1-----------|-----------------|
B|-------5-------5-|------3-------3--|-1---1-----------|-----------------|
G|-----5-----------|----4------------|-2---2-----------|-----------------|
D|-/7--------------|-/5--------------|-3---3-----------|-----------------|
A|-----------------|-----------------|-----------------|-----------------|
E|-----------------|-----------------|-----------------|-----------------|
 
E|---------5h7p5---|--------3h5p3----|-1---1---0-0-------|-----------------|
B|-------5-------5-|------3-------3--|-1---1---3---3-----|-----------------|
G|-----5-----------|----4------------|-2---2---2-----2---|-----------------| X3
D|-/7--------------|-/5--------------|-3---3---0-------0-|-----------------|
A|-----------------|-----------------|-------------------|-----------------|
E|-----------------|-----------------|-------------------|-----------------|
 
E|---------5h7p5---|--------3h5p3----|-1---1-----------|-----------------|
B|-------5-------5-|------3-------3--|-1---1-----------|-----------------|
G|-----5-----------|----4------------|-2---2-----------|-----------------|
D|-/7--------------|-/5--------------|-3---3-----------|-----------------|
A|-----------------|-----------------|-----------------|-----------------|
E|-----------------|-----------------|-----------------|-----------------|
 
 
[Bridge]
E|-1----1--0----------|--1-------1------|-1----0-------0-----|----------1--0-------|
B|-1----1--0----------|--3-----3--3-----|-1----0-------1-----|----1-----1--0-------|
G|-2----2--1----------|--2----2----2----|-2----1-------2-----|---2-2----2--1-------|
D|-3----3--2----------|--0--0-----------|-3----2-------2-----|--2---2---3--2-------|
A|-3----3--2----------|-----------------|-3----2-------0-----|-0--------3--2-------|
E|-1----1--0----------|-----------------|-1----0-------------|----------1--0-------|
 
E|-3------------1---0---|-1---1-1-1-1---------|-3---1-0--1-------1-----|
B|-3-------3----1---0---|-3---3-3-3-3---------|-3---1-0--3-----3---3---|
G|-0------0-0---2---1---|-2---2-2-2-2---------|-0---2-1--2---2-------2-|
D|-0-----0---0--3---2---|-0-0--0-0-0-0--------|-0---3-2--0-0-----------|
A|-2------------3---2---|---------------------|-2---3-2----------------|
E|-3---3--------1---0---|---------------------|-3---1-0----------------|
 
E|-1--0--0--------------|-1---0---3---------------|-1--0---1--1-1-1-------|-3--1-0---1--------1-------|
B|-1--0--1--------1-----|-1---0---3---------3-----|-1--0---3--3-3-3-------|-3--1-0---3------3---3-----|
G|-2--1--2------2---2---|-2---1---0-------0---0---|-2--1---2--2-2-2-------|-0--2-1---2----2-------2---|
D|-3--2--2----2-------2-|-3---2---0-----0-------0-|-3--2----0--0-0-0------|-0--3-2---0--0-------------|
A|-3--2--0--0-----------|-3---2---2---------------|-3--2------------------|-2--3-2--------------------|
E|-1--0-----------------|-1---0---3--3------------|-1--0------------------|-3--1-0--------------------|
 
E|-1-0---------------|-----------------|-----------------|-----------------|
B|-1-0---------------|-----------------|-----------------|-----------------|
G|-2-1---------------|-----------------|-----------------|-----------------|
D|-3-2---------------|-----------------|-----------------|-----------------|
A|-3-2---------------|-----------------|-----------------|-----------------|
E|-1-0---------------|-----------------|-----------------|-----------------|
            
Submit corrections

↑ Back to top | Tablatures and chords for acoustic guitar and electric guitar, ukulele, drums are parodies/interpretations of the original songs. You may use it for private study, scholarship, research or language learning purposes only