» » »

Dying Fetus - In Times Of War Tabs

Artists:  A B C D E F G H I J K L M N O P Q R S T U V W X Y Z # 

In Times Of War Tabs

(ver. 1) Click to play this song!
Dying Fetus
 Rating:
4.2/5 (5 votes)

 In Times Of War lessons Tabs too difficult? Try these video lessons and learn fast
 
                
Album:Destroys the opposition
Tune guitars to drop C#

.  - palm mute       *  - staccato
"  - tremolo pick    \  - slide down to
^  - pinch harmonics /  - slide up to


Riff 1 both guitars
|---------------------------------------------------------------|
|---------------------------------------------------------------|
|---------------------------------------------------------------|
|--------------------2/5-----2/5----------------7"-5"-7"-8"-----|3x
|-2--------------2-2-----4-4------------------------------------|
|-0-0-0-0--3"-2"-0-0-----2-2-----333-333-222-00-----------------|
  . . . .        . .     . .     ... ... ... ..        

Riff 2 both guitars
|-----------------------------------------------------------------|
|-----------------------------------------------------------------|
|-----------------------------------------------------------------|
|--------------------2/5-----2/5----------------------------------|2x
|-2--------------2-2-----4-4--------------------------------------|
|-0-0-0-0--3"2"--0-0-----2-2------333-333-222-000-555-333-555-666-|
  . . . .        . .     . .      ... ... ... ... ... ... ... ...

outro to riff 2
|-------------------------------------------------------|
|-------------------------------------------------------|
|-------------------------------------------------------|
|-------------------------------------------------------|
|-2-2-2-2----------2-2-2-2----------2-2-2-2----------2--|
|-0-0-0-0-333-222--0-0-0-0-333-222--0-0-0-0-333-222--0--|
  . . . . ... ...  . . . . ... ...  . . . . ... ... 

Riff 3
|-------------------------------------------------------------|
|-------------------------------------------------------------|
|-------------------------------------------------------------|
|-------------------------------------------------------------|4x
|---------------------------------------------------5/7-7/8-8-|
|-0-0-0-0-333-222--0-0-0-0-333-222--0-0-0-0-333-222-3/5-5/6-6-|
  . . . . ... ...  . . . . ... ...  . . . . ... ... 
Riff 4
|----------------------------------------------------------------|
|--------------------------------------------------------------^-|
|-------------------------------^------------------------------3-|
|-------------------------------4--------------------------3-----|4x
|-2-22-2-5\4-2-2--7--2-4-2-4-2------2-22-2-5\4-2-2--8--2-4-1-2---|
|-0-00-0-3\2-0-0--5--0-2-0-2-0------0-00-0-3\2-0-0--6--0-2---0---|
  . .. .     . . 

outro to Riff 4
|--------------|
|--------------|
|--------------|
|-----3--3-----|
|--4--1--1-----|
|--2-----------|
   *  *  *
  us all to hell  

Riff 5
|---------------------------------------------------|
|---------------------------------------------------|
|-----------------------------------------4"----5"--|
|-4"---------5"----6"-7"---4"----------2"----3"-----|4x
|---------------------------------------------------|
|---2"-0"-2"----3"------------2"-0"-2"--------------|

Riff 6       
|------------------------------------------21"-----22"--|
|--------------------------------------19"-----20"------|
|-------------------------------------------------------|
|-4"---------5"----6"-7"---4"---------------------------|2x
|-------------------------------------------------------|
|---2"-0"-2"----3"------------2"-0"-2"------------------|

Riff 7
|--------------------------------------------------------------|
|--------------------------------------------------------------|
|--------------------------------------------------------------|
|------------------------------------------------------------^-|
|-2-2-2-2-5\4-2-2-2-2-4/5-2-2-7----------222---------333-----3-|
|-0-0-0-0-3\2-0-0-0-0-2/3-0-0-5--000-222-----111-222-----111---|
  . . . .     . . . .     . .    ... ... ... ... ... ... ...

Riff 8
|-------------------------------------------------------------|
|-------------------------------------------------------------|
|-------------------------------------------------------------|
|-------------------------------------------------------------|
|-2-2-2-2-4/5-2-2-2-2-5--4--5-----------333---------222-----1-|
|-0-0-0-0-2/3-0-0-0-0-3--2--3---000-444-----111-333-----0-1---|
  . . . .     . . . .           ... ... ... ... ... ... 

repeat
Riff 7
Riff 8
Riff 7
Riff 8

Riff 9 really fast
|--------------------------------|
|--------------------------------|
|--------------------------------|
|-----5---------------5----------|
|-2-3-3-3-2-3-6-5-2-3-3-3-2-3-6--|
|-0-1---1-0-1-4-3-0-1---1-0-1-4--|

Riff 10
|------------------|
|------------------|
|------------------|
|-----5------------|
|-2-3-3-3-2-3-6-5--|
|-0-1---1-0-1-4-3--|

Riff 11 
|----------------------|
|----------------------|im not really 
|----------------------|sure about this riff
|----------------------|but its close.
|-5-6-6-3-5-6-6-3-5-6--|
|-3-4-4-1-3-4-4-1-3-4--|
  . . . . . . . . . .
Repeat 
Riff 9
Riff 10
Riff 11

Riff 12
|-------------------------------------------------------------------|
|-------------------------------------------------------------------|
|-------------------------------------------------------------------|
|-------------------------------------------------------------------|
|------3"--------------------3"-------------------3"----------------|
|-0"-1"--1"-0"-1"-4"-3"-0"-1"--1"-0"-1"-4"4"-0"-1"--1"-0"-1"-4"-3"--|

Repeat riff 11

Riff 13
|----------------------------|
|----------------------------|
|----------------------------|
|-------5--5-----------------|
|-2--3--3--3--3--2-3-2-6--5--|
|-0--1--------1--0-1-0-4--3--|

Riff 14
|-------------------------|
|-------------------------|
|---------------------^---|
|-------5--5----------3---|
|-2--3--3--3-3--2-3-2-----|
|-0--1-------1--0-1-0-----|
 
Repeat 
Riff 13
Riff 11
Riff 13
Riff 14
Riff 13
Riff 11

The End
            
Submit corrections


        In Times Of War lessons Hard to play? Try these video lessons and learn fast In Times Of War lessons
        
↑ Back to top | Tablatures and chords for acoustic guitar and electric guitar, ukulele, drums are parodies/interpretations of the original songs. You may use it for private study, scholarship, research or language learning purposes only