Home » D » Duran Duran »

Duran Duran - Girls On Film Bass

Artists:  A B C D E F G H I J K L M N O P Q R S T U V W X Y Z # 

Girls On Film Bass

(ver. 3) Click to play this song!
Duran Duran
Bass Starts: 0:15

Intro: (Play Twice)

G|----------------------7---7----10-10--------------------------------------|
D|----7---7----5---5--------------------------------------------------------|
A|--------------------5---5----8--------------------------------------------|
E|--5---5----3---3----------------------------------------------------------|

Verse:

G|----------------------7---7----10-10-(x8)---------------------------------|
D|----7---7----5---5--------------------------7-7-7---7-7-7-(x1)------------|
A|--------------------5---5----8--------------------------------------------|
E|--5---5----3---3----------------------------------------------------------|

Chorus:

G|--------------7---7---7---7---7---7---------------------------------------|
D|--7-7---------------------------------------------7---7---7---7---7---7---|
A|-------7-7--5---5---5---5---5---5-----7-7--3-3----------------------------|
E|------------------------------------------------5---5---5---5---5---5-----|

G|------------7---7---7---7---7---7-----------------------------------------|
D|--7-----------------------------------------------7---7---7---7-7/-\------|
A|-----7-7--5---5---5---5---5---5-----7-7--3-3------------------------------|
E|----------------------------------------------5---5---5---5---------------|

Repeat Verse:

Chorus:

G|--------------7---7---7---7---7---7---------------------------------------|
D|--7-7---------------------------------------------7---7---7---7---7---7---|
A|-------7-7--5---5---5---5---5---5-----7-7--3-3----------------------------|
E|------------------------------------------------5---5---5---5---5---5-----|

G|--------------7---7---7---7---7---7---------------------------------------|
D|--7-7---------------------------------------------7---7---7---7-7/-\------|
A|-------7-7--5---5---5---5---5---5-----7-7--3-3----------------------------|
E|------------------------------------------------5---5---5---5----------3--|

Bridge:

G|--------------------3-(x4)------------------------------------------------|
D|----7---7----5----------------7---7/----10---10-(x1)----------------------|
A|----------------1-1-------------------------------------------------------|
E|--5---5----3----------------5---5-----8----8------------------------------|

G|--------------------------------------------------------------------------|
D|--12-12-12-12-12-12-12-12---15-17-15-17-15-17-15-(x1)---------------------|
A|--------------------------------------------------------------------------|
E|--------------------------------------------------------------------------|

Repeat Verse:

Chorus:

G|--------------7---7---7---7---7---7---------------------------------------|
D|--7-7---------------------------------------------7---7---7---7---7---7---|
A|-------7-7--5---5---5---5---5---5-----7-7--3-3----------------------------|
E|------------------------------------------------5---5---5---5---5---5-----|

G|--------------7---7---7---7---7---7---------------------------------------|
D|--7-7---------------------------------------------7---7---7---7-7---------|
A|-------7-7--5---5---5---5---5---5-----7-7--3-3----------------------------|
E|------------------------------------------------5---5---5---5-------------|

End:

G|--------------------------------------------------------------------------|
D|--7-7--7-7-7--5-7---------------------------------------------------------|
A|--------------------------------------------------------------------------|
E|--------------------------------------------------------------------------|            
Submit corrections

↑ Back to top | Tablatures and chords for acoustic guitar and electric guitar, ukulele, drums are parodies/interpretations of the original songs. You may use it for private study, scholarship, research or language learning purposes only