» » »

Duke Ellington - Corner Pocket Tabs

Artists:  A B C D E F G H I J K L M N O P Q R S T U V W X Y Z # 

Corner Pocket Tabs

(ver. 1) Click to play this song!
Duke Ellington
 Rating:
4.4/5 (17 votes)

 Corner Pocket  lessons Tabs too difficult? Try these video lessons and learn fast
 
                [A]
  
 |--1st time only-|
 |                |Ebm7             Ab7              Db6              Fm7     Bb7
e|----------------|----------------|----------------|----------------|--6---6---------|
B|----------------|--7-------7-----|--7-------7-----|6-9-6-9---------|8---8-----------|
G|----------------|8---8---8---8---|8---8---8---8-9-|----------------|----------------|
D|--------------8-|------8-------8-|------8---------|----------------|----------------|
A|----------------|----------------|----------------|----------------|----------------|
E|----------------|----------------|----------------|----------------|----------------|

                                                    |--1st Ending----||---2nd Ending---||
  Ebm7             Ab7              Db6             |Fm7     Bb7     ||Db6             ||
e|----------------|----------------|----------------|----------------||----------------||
B|--7-------7-----|--7-------7-----|----------------|----------------||----------------||
G|----8---8---8---|8---8---8---7-6-|----------------|----------------||----------------||
D|------8-------8-|------8---------|----------------|--------------8-||----------6-8-9-||
A|----------------|----------------|----------------|----------------||----------------||
E|----------------|----------------|----------------|----------------||----------------||


[B]

  Abm7             Db7              Gbmaj7           
e|----------------|----------------|----------------|----------------|
B|----------------|----------------|----------------|----------------|
G|----------------|----------6-----|--6---6---------|------------5-6-|
D|------6-------9-|--9---6-9---9-6-|8---8-----------|----------8-----|
A|----------------|----------------|----------------|----------------|
E|----------------|----------------|----------------|----------------|

  Bbm7             Eb7              Ab7              Ebm7    Ab7
e|----------------|----------------|----------------|----------------|
B|----------------|----------------|----------------|----------------|
G|--------------6-|--6-----6-8-6---|5-8-5-8---------|----------------|
D|------8---------|------8-------8-|----------------|--8---8-------8-|
A|----------------|----------------|----------------|9---9-----------|
E|----------------|----------------|----------------|----------------|            
Submit corrections


        Corner Pocket  lessons Hard to play? Try these video lessons and learn fast Corner Pocket  lessons
        
↑ Back to top | Tablatures and chords for acoustic guitar and electric guitar, ukulele, drums are parodies/interpretations of the original songs. You may use it for private study, scholarship, research or language learning purposes only