Home » D » Dsound »

Dsound - People Are People Tabs

Artists:  A B C D E F G H I J K L M N O P Q R S T U V W X Y Z # 

People Are People Tabs

(ver. 2) Click to play this song!
Dsound
This is a song by D'Sound.. 


Intro and Verse 1:
E|--------------|--------------|--------------|--------------|
B|--------------|--------------|--------------|--------------|
G|-------8------|-------6------|-------6------|-------5------| [Repeat until
D|-------6------|-------6------|-------4------|-------4------|  pre-chorus..]
A|---8-------0--|-----------0--|---6-------0--|-----------0--|
E|--------------|---6----------|--------------|---4----------|


Pre-chorus:
E|--------------|--------------|--------------|--------------|
B|--------------|--------------|--------------|--------------|
G|-------6------|-------6------|-------8------|-------6------| [Repeat 3x]
D|-------4------|-------4------|-------6------|-------6------|
A|---6-------0--|---6-------0--|---8-------0--|---6-------0--|
E|--------------|--------------|--------------|--------------|


E|--------------|--------------|--------------|
B|--------------|--------------|--------------|
G|-------6------|-------6------|-------5------|
D|-------4------|-------4------|-------4------|
A|---6-------0--|---6-------0--|--------------|
E|--------------|--------------|-------4------|


That'z all folks! Just repeat and repeat and repeat! You must listen first
to the song 2 get the timing... Yeah!
            
Submit corrections

↑ Back to top | Tablatures and chords for acoustic guitar and electric guitar, ukulele, drums are parodies/interpretations of the original songs. You may use it for private study, scholarship, research or language learning purposes only