Home » D » Dropping Daylight »

Dropping Daylight - Apologies Tabs

Artists:  A B C D E F G H I J K L M N O P Q R S T U V W X Y Z # 

Apologies Tabs

(ver. 1) Click to play this song!
Dropping Daylight
Dropping Daylight - Apologies
Track #4 from "Brace Yourself"

Guitar 1 - Seth Davin
Guitar 2 - "fill"

.   = palm mute
P.S.= pick scr*pe
xxx = scratch

INTRO/CHORUS - 2x
e|-------------------------------------|
B|-------------------------------------|
G|------------------22222222-44444444--|
D|55555555-00000000-22222222-44444444--|
A|55555555-00000000-00000000-22222222--|
D|55555555-00000000--------------------|

VERSE
Guitar 1 - you can hit an open "B" string is you like here.
e|-----------------------------------------------------------------------|
B|-----------------------------------------------------------------------|
G|-66-66-66-66-66-666-66-66-66-6-666-66-66-66-6-666-66-66-66-6-666-66-66-|
D|-77-77-77-77-77-777-77-77-77-7-777-77-77-77-7-777-77-77-77-7-777-77-77-|
A|-55-55-55-55-55-555-55-55-55-5-555-55-55-55-5-555-55-55-55-5-555-55-55-|
D|-----------------------------------------------------------------------|

e|-----------------------------------------------------------------------|
B|-----------------------------------------------------------------------|
G|-66-6-666-66-66-66-6-666-66-66-66-6-666-66-66-66-6-666-66-66-66-6------|
D|-77-7-777-77-77-77-7-777-77-77-77-7-777-77-77-77-7-777-77-77-77-7------|
A|-55-5-555-55-55-55-5-555-55-55-55-5-555-55-55-55-5-555-55-55-55-5------|
D|-----------------------------------------------------------------------|

PRE-CHORUS
Guitar 1
       ........ ........ ........
e|-------------------------------------0---|
B|-----------------------------------0-0---|
G|---------------------------------2-2-2---|
D|xxxx-22222222-44444444-----------2-2-2---|
A|xxxx-00000000-22222222-22222222--0-0-0---|
D|xxxx-------------------22222222----------|

Guitar 2 - listen closely - its there
e|-----------------------------|
B|-----------------------------|
G|----22-----------------------|
D|----22-----------------------|
A|----00-----------------------|
D|-----------------------------|

CHORUS - 2x

VERSE
e|-----------------------------------------------------------------------|
B|-----------------------------------------------------------------------|
G|66-66-66-66-6-666-66-66-66-6-666-66-66-66-6-666-66-66-66-6-666-66-66-66|
D|77-77-77-77-7-777-77-77-77-7-777-77-77-77-7-777-77-77-77-7-777-77-77-77|
A|55-55-55-55-5-555-55-55-55-5-555-55-55-55-5-555-55-55-55-5-555-55-55-55|
D|-----------------------------------------------------------------------|

e|----------------------------------------------------------------------|
B|----------------------------------------------------------------------|
G|6767-66-66-6-666-66-66-66-6-666-66-66-66-6-666-66-66------------------|
D|7777-77-77-7-777-77-77-77-7-777-77-77-77-7-777-77-77-------x-x--------|
A|5555-55-55-5-555-55-55-55-5-555-55-55-55-5-555-55-55-------x-x--12<<<-|
D|------------------------------------------------------P.S.-x-x--12<<<-|

PRE-CHORUS
CHORUS

BRIDGE
Part 1 - 2x
e|--------------------------------------|
B|--------------------------------------|
G|-------------------2--2-2-2--4--4-4-4-|
D|5--5-5-5--0--0-0-0-2--2-2-2--4--4-4-4-|
A|5--5-5-5--0--0-0-0-0--0-0-0--2--2-2-2-|
D|5--5-5-5--0--0-0-0--------------------|

Part 2
Guitar 1
e|-----------------------------|
B|-----------------------------|
G|----------2----444-----------|
D|5----0----2----444-----------|
A|5----0----0----222-----------|
D|5----0-----------------------|

Guitar 2
e|-----------------------------|
B|-----------------------------|
G|-----------------------------|
D|-----------------------------|
A|5-s--9--s-4--s-222-----------|
D|-----------------------------|

PIANO BREAK

OUTRO
Part 1
Guitar 1
e|----------------------------------------|
B|----------------------------------------|
G|------------------22222222-4xxxx4xxxx4--|
D|55555555-00000000-22222222-4xxxx4xxxx4--|
A|55555555-00000000-00000000-2xxxx2xxxx2--|
D|55555555-00000000-----------------------|

Guitar 1 - 2x
e|-------------------------------------|
B|-------------------------------------|
G|------------------22222222-44444444--|
D|55555555-00000000-22222222-44444444--|
A|55555555-00000000-00000000-22222222--|
D|55555555-00000000--------------------|

Part 2
Guitar 1
e|--------------------|
B|--------------------|
G|----------2----4----|
D|5----0----2----4----|
A|5----0----0----2----|
D|5----0--------------|

Guitar 2
e|--------------------|
B|--------------------|
G|--------------------|
D|--------------------|
A|5-s--9--s-4--s-2----|
D|--------------------|

Part 3
Guitar 1
e|--------------------|
B|--------------------|
G|----------2----444--|
D|5----0----2----444--|
A|5----0----0----222--|
D|5----0--------------|

Guitar 2
e|--------------------|
B|--------------------|
G|--------------------|
D|--------------------|
A|5-s--9--s-4--s-222--|
D|--------------------|
            
Submit corrections

↑ Back to top | Tablatures and chords for acoustic guitar and electric guitar, ukulele, drums are parodies/interpretations of the original songs. You may use it for private study, scholarship, research or language learning purposes only