» » »

Dropkick Murphys - Sandlot Tabs

Artists:  A B C D E F G H I J K L M N O P Q R S T U V W X Y Z # 

Sandlot Tabs

(ver. 1) Click to play this song!
Dropkick Murphys
 Rating:
4.3/5 (6 votes)


 Sandlot  lessons Tabs too difficult? Try these video lessons and learn fast
 
                [solo]

e|----------------------------------------------------8-5-8-|
B|----------------------------------------------------8-5-8-|
G|-----------------7-7--------------------------------8-5-8-|
D|-------7-7-10-10-----10-10-7-7----------------------------|
A|-1-8-8-------------------------8-8------8-10-8------------|
E|-----------------------------------8/10--------10-8-------|

e|-------------------------------------------------------------|
B|--------------------------------------------8--8-6-6-5-5-3-1-|
G|----------------7-7------------------------------------------|
D|------7-7-10-10-----10-10-7-7-7-7--9--9--9-------------------|
A|-/8-8-------------------------8-8/10-10-10-10-10-8-8-7-7-5-3-|
E|-------------------------------------------------------------|

[rhythm]

e|---X-X---X-X---------------------------------------------|
B|---X-X---X-X---------------5-5-5-5-5-5---5-5-5-5-5-5-5-5-|
G|---X-X---3-X---------------5-5-5-5-5-5---5-5-5-5-5-5-5-5-|
D|---3-3---3-3---3-3-3-3-3-3-3-3-3-3-3-3-3-3-3-3-3-3-3-3-3-|
A|---3-3---3-3---3-3-3-3-3-3-------------3-----------------|
E|-0h1-1-0h1-1-0h1-1-1-1-1-1-------------1-----------------|

e|-----------------------|
B|-----------------------|
G|-----------------------|
D|---3---3---3-5---------|
A|---3---3---3-5---------|
E|-0h1-0h1-0h1-3---------|            
Submit corrections



        Sandlot  lessons Hard to play? Try these video lessons and learn fast Sandlot  lessons
        
↑ Back to top | Tablatures and chords for acoustic guitar and electric guitar, ukulele, drums are parodies/interpretations of the original songs. You may use it for private study, scholarship, research or language learning purposes only