» » »

Dropkick Murphys - Rebels With A Cause Bass

Artists:  A B C D E F G H I J K L M N O P Q R S T U V W X Y Z # 

Rebels With A Cause Bass

(ver. 1) Click to play this song!
Dropkick Murphys
 Rating:
4.3/5 (18 votes)


 Rebels With A Cause  lessons Tabs too difficult? Try these video lessons and learn fast
 
                [Intro]

G|-----------------|-----------------|-----------------|-----------------|
D|-----------------|-----------------|-----------------|-----------------|
A|-----3-------3---|---3----3-5------|-----3-------3---|---3----3-5------|
E|-3-------3-------|-3---3-----------|-3-------3-------|-3---3-----------|

G|-----------------|-----------------|-----------------|-----------------|
D|-----------------|-----------------|-----------------|-----------------|
A|-------------3---|-5---5---5---3---|-------------3---|-5---5---5---3---|
E|-3---3---3-----5-|---------------3-|-3---3---3-----5-|---------------5-|

[Verse]

G|-----------------|-----------------|-----------------|-----------------|
D|-----------------|-----------------|-----------------|-----------------|
A|-----------------|-----------------|-5-5-5-5-5-5-5-5-|-5-5-5-5---------|
E|-3-3-3-3-3-3-3-3-|-3-3-3-3-3-3-3-3-|-----------------|---------3-3-3-3-|

G|-----------------|-----------------|-----------------|-----------------|
D|-----------------|-----------------|-----------------|---------5-5-5-5-|
A|-----------------|-----------------|-5-5-5-5-5-5-5-5-|-5-5-5-5---------|
E|-3-3-3-3-3-3-3-3-|-3-3-3-3-3-3-3-3-|-----------------|-----------------|

[Pre-Chorus]

G|-----------------|-----------------|-----------------|-----------------|
D|-----------------|-----------------|-----------------|-----------------|
A|-5-5-5-5-5-5-5-5-|-5-5-5-5---------|-3-3-3-3-3-3-3-3-|-3-3-3-3-5-5-5-5-|
E|-----------------|---------3-3-3-3-|-----------------|-----------------|

G|-----------------|-----------------|-----------------|-----------------|
D|-----------------|-----------------|-----------------|---------5-5-5-5-|
A|-----------------|-----------------|-5-5-5-5-5-5-5-5-|-5-5-5-5---------|
E|-3-3-3-3-3-3-3-3-|-3-3-3-3-3-3-3-3-|-----------------|-----------------|

G|-----------------|-----------------|
D|-----------------|-----------------|
A|-5---------------|-----------------|
E|-----------------|-----------------|

[Chorus]

G|-----------------|-----------------|-------------4---|-----------------|
D|-----2---5---2---|-----------------|-----4---7-------|-5---------------|
A|-3---------------|-----2---5---2---|-5---------------|-----2---3---5---|
E|-----------------|-3---------------|-----------------|-----------------|

G|-----------------|-----------------|-------------4---|-5---------------|
D|-----2---5---2---|-----------------|-----4---7-------|-----2---3---4---|
A|-3---------------|-----2---5---2---|-5---------------|-----------------|
E|-----------------|-3---------------|-----------------|-----------------|

G|-----------------|-----------------|-----------------|-----------------|
D|-----------------|-----------------|-----------------|-----------------|
A|-5---------------|-5---------------|-5-5-5-5-5-5-5-5-|-5-5-5-5-5-------|
E|-----------------|-----------------|-----------------|-----------------|

[Post-Chorus]

G|-----------------|-----------------|
D|-----------------|-----------------|
A|-------------3---|-5---5---5---3---|
E|-3---3---3-----5-|---------------3-|

[Verse 2] (same as first)

G|-----------------|-----------------|-----------------|-----------------|
D|-----------------|-----------------|-----------------|-----------------|
A|-----------------|-----------------|-5-5-5-5-5-5-5-5-|-5-5-5-5---------|
E|-3-3-3-3-3-3-3-3-|-3-3-3-3-3-3-3-3-|-----------------|---------3-3-3-3-|

G|-----------------|-----------------|-----------------|-----------------|
D|-----------------|-----------------|-----------------|---------5-5-5-5-|
A|-----------------|-----------------|-5-5-5-5-5-5-5-5-|-5-5-5-5---------|
E|-3-3-3-3-3-3-3-3-|-3-3-3-3-3-3-3-3-|-----------------|-----------------|

[Pre-Chorus] (same as first)

G|-----------------|-----------------|-----------------|-----------------|
D|-----------------|-----------------|-----------------|-----------------|
A|-5-5-5-5-5-5-5-5-|-5-5-5-5---------|-3-3-3-3-3-3-3-3-|-3-3-3-3-5-5-5-5-|
E|-----------------|---------3-3-3-3-|-----------------|-----------------|

G|-----------------|-----------------|-----------------|-----------------|
D|-----------------|-----------------|-----------------|---------5-5-5-5-|
A|-----------------|-----------------|-5-5-5-5-5-5-5-5-|-5-5-5-5---------|
E|-3-3-3-3-3-3-3-3-|-3-3-3-3-3-3-3-3-|-----------------|-----------------|

G|-----------------|-----------------|
D|-----------------|-----------------|
A|-5---------------|-----------------|
E|-----------------|-----------------|

[Chorus 2]

G|-----------------|-----------------|-------------4---|-----------------|
D|-----2---5---2---|-----------------|-----4---7-------|-5---------------|
A|-3---------------|-----2---5---2---|-5---------------|-----2---3---5---|
E|-----------------|-3---------------|-----------------|-----------------|

G|-----------------|-----------------|-------------4---|-5---------------|
D|-----2---5---2---|-----------------|-----4---7-------|-----2---3---4---|
A|-3---------------|-----2---5---2---|-5---------------|-----------------|
E|-----------------|-3---------------|-----------------|-----------------|

G|-----------------|-----------------|-----------------|-----------------|
D|-----------------|-----------------|-----------------|-----------------|
A|-5---------------|-5---------------|-5-5-5-5-5-5-5-5-|-----------------|
E|-----------------|-----------------|-----------------|-----------------|

[Post-Chorus 2]

G|-----------------|-----------------|-----------------|-----------------|
D|-----------------|-----------------|-----------------|-----------------|
A|-------------3---|-5---5---5---3---|-------------3---|-5---5---5---3---|
E|-3---3---3-----5-|---------------3-|-3---3---3-----5-|---------------5-|

G|-----------------|-----------------|
D|-----------------|-----------------|
A|-----------------|-----------------|
E|-3---3---3---3-3-|-3---3---3---3-3-|

[Bridge]

G|--------------10---|------------------|--------------10---|------------------|
D|-8-------10--------|-8-------10-------|-8-------10--------|-8-------10-------|
A|-----8-------------|-----8--------8---|-----8-------------|-----8--------8---|
E|-------------------|------------------|-------------------|------------------|

[Chorus 3]

G|-----------------|-----------------|-------------4---|-----------------|
D|-----2---5---2---|-----------------|-----4---7-------|-5---------------|
A|-3---------------|-----2---5---2---|-5---------------|-----2---3---5---|
E|-----------------|-3---------------|-----------------|-----------------|

G|-----------------|-----------------|-------------4---|-5---------------|
D|-----2---5---2---|-----------------|-----4---7-------|-----2---3---4---|
A|-3---------------|-----2---5---2---|-5---------------|-----------------|
E|-----------------|-3---------------|-----------------|-----------------|

G|-----------------|-----------------|-------------4---|-----------------|
D|-----2---5---2---|-----------------|-----4---7-------|-5---------------|
A|-3---------------|-----2---5---2---|-5---------------|-----2---3---5---|
E|-----------------|-3---------------|-----------------|-----------------|

G|-----------------|-----------------|-------------4---|-5---------------|
D|-----2---5---2---|-----------------|-----4---7-------|-----2---3---4---|
A|-3---------------|-----2---5---2---|-5---------------|-----------------|
E|-----------------|-3---------------|-----------------|-----------------|

G|-----------------|-----------------|-----------------|-----------------|
D|-----------------|-----------------|-----------------|-----------------|
A|-5---------------|-5---------------|-5-5-5-5-5-5-5-5-|-----------------|
E|-----------------|-----------------|-----------------|-----------------|

[Outro]

G|-----------------|-----------------|-----------------|-----------------|
D|-----------------|-----------------|-----------------|-----------------|
A|-------------3---|-5---5---5---3---|-----------------|-5---------------|
E|-3---3---3-----5-|---------------3-|-----------------|-----------------|            
Submit corrections



        Rebels With A Cause  lessons Hard to play? Try these video lessons and learn fast Rebels With A Cause  lessons
        
↑ Back to top | Tablatures and chords for acoustic guitar and electric guitar, ukulele, drums are parodies/interpretations of the original songs. You may use it for private study, scholarship, research or language learning purposes only