Home » D » Dropkick Murphys »

Dropkick Murphys - Im Shipping Up To Boston Ukulele

Artists:  A B C D E F G H I J K L M N O P Q R S T U V W X Y Z # 

Im Shipping Up To Boston Ukulele

(ver. 1) Click to play this song!
Dropkick Murphys
[Intro]

A|-----------------------|-----------------2----|-----------------------|-2-0---0----------------|
E|-0----0----0-2-3-2-0---|-0----0----0-2-3------|-0----0----0-2-3-2-0---|-----3---3-2-3-2---0----| x3
C|----2----2-----------2-|----2----2------------|----2----2-----------2-|-----------------2------|
G|-----------------------|----------------------|-----------------------|------------------------|

A|------------------------|------------------9----|-------------------------|-9-7----7------------------|
E|-7----7----7-9-10-9-7---|-7----7----7-9-10------|-7----7-----7-9-10-9-7---|-----10---10-9-10-9---7----| x2
C|----9----9------------9-|----9----9-------------|----9-----9------------9-|--------------------9------|
G|------------------------|-----------------------|-------------------------|---------------------------|


[Verse 1]

Em
I'm a sailor peg and I lost my leg

Em                             D      A
I climbed up the topsails, I lost my leg


A|-----------------------|-----------------2----|-----------------------|-2-0---0----------------|
E|-0----0----0-2-3-2-0---|-0----0----0-2-3------|-0----0----0-2-3-2-0---|-----3---3-2-3-2---0----|
C|----2----2-----------2-|----2----2------------|----2----2-----------2-|-----------------2------|
G|-----------------------|----------------------|-----------------------|------------------------|

A|------------------------|------------------9----|-------------------------|-9-7----7------------------|
E|-7----7----7-9-10-9-7---|-7----7----7-9-10------|-7----7-----7-9-10-9-7---|-----10---10-9-10-9---7----| x2
C|----9----9------------9-|----9----9-------------|----9-----9------------9-|--------------------9------|
G|------------------------|-----------------------|-------------------------|---------------------------|


[Chorus]

D                          C       G
I'm shipping up to Boston, whoa oh oh
D                          C       G
I'm shipping up to Boston, whoa oh oh
D                          C       G
I'm shipping up to Boston, whoa oh oh
D
I'm shipping off
    C       G     Em
To find my wooden leg


[Instrumental]

A|-----------------------|-----------------2----|-----------------------|-2-0---0----------------|
E|-0----0----0-2-3-2-0---|-0----0----0-2-3------|-0----0----0-2-3-2-0---|-----3---3-2-3-2---0----|
C|----2----2-----------2-|----2----2------------|----2----2-----------2-|-----------------2------|
G|-----------------------|----------------------|-----------------------|------------------------|


[Verse 2]

Em
I'm a sailor peg and I lost my leg

Em                             D      A
I climbed up the topsails, I lost my leg


[Instrumental]

A|------------------------|------------------9----|-------------------------|-9-7----7------------------|
E|-7----7----7-9-10-9-7---|-7----7----7-9-10------|-7----7-----7-9-10-9-7---|-----10---10-9-10-9---7----| x2
C|----9----9------------9-|----9----9-------------|----9-----9------------9-|--------------------9------|
G|------------------------|-----------------------|-------------------------|---------------------------|


[Chorus]
D                          C       G
I'm shipping up to Boston, whoa oh oh
D                          C       G
I'm shipping up to Boston, whoa oh oh
D                          C       G
I'm shipping up to Boston, whoa oh oh
D
I'm shipping off
    C       G     Em
To find my wooden leg


[Outro]

A|-----------------------|-----------------2----|-----------------------|-2-0---0----------------|
E|-0----0----0-2-3-2-0---|-0----0----0-2-3------|-0----0----0-2-3-2-0---|-----3---3-2-3-2---0----|
C|----2----2-----------2-|----2----2------------|----2----2-----------2-|-----------------2------|
G|-----------------------|----------------------|-----------------------|------------------------|
            
Submit corrections

↑ Back to top | Tablatures and chords for acoustic guitar and electric guitar, ukulele, drums are parodies/interpretations of the original songs. You may use it for private study, scholarship, research or language learning purposes only