Home » D » Drifters »

Drifters - Save The Last Dance For Me Bass

Artists:  A B C D E F G H I J K L M N O P Q R S T U V W X Y Z # 

Save The Last Dance For Me Bass

(Version #1)
Drifters
Intro:
G|-----9--------9---
D|----9--9-----9--9-
A|-7--------7-------
E|------------------

Verse:
G|-----9--------9--------9------------------------------------------------
D|----9--9-----9--9-----9--9------9--------9--------9--------9--------9---
A|-7--------7--------7-----------9--9-----9--9-----9--9-----9--9-----9--9-
E|----------------------------7--------7--------7--------7--------7-------

G|-----9--------9----------------------------------9--------9------------
D|----9--9-----9--9-------------------------------9--9-----9--9------9---
A|-7--------7--------12----12-----12----12-----7--------7-----------9--9-
E|-----------------------12--12-------12--12---------------------7-------

G|---------------9--------9---
D|-----9--------9--9-----9--9-
A|----9--9---7--------7-------
E|-7--------------------------

Repeat Verse:

Middle 8:
G|------------------------9--------9--------------------------9--------9---
D|-----9--------9--------9--9-----9--9-----9--------9--------9--9-----9--9-
A|----9--9-----9--9---7--------7----------9--9-----9--9---7--------7-------
E|-7--------7--------------------------7--------7--------------------------

Repeat Verse:

Instrumental Interlude: (Repeat Middle 8)

Play This: (Part Verse)
G|-------------------------------9--------9------------------------
D|------------------------------9--9-----9--9------9--------9------
A|-12----12-----12----12-----7--------7-----------9--9-----9--9----
E|-----12--12-------12--12---------------------7--------7----------

G|-----9--------9---
D|----9--9-----9--9-
A|-7--------7-------
E|------------------

Outro:                      (Repeat To Fade/End)
G|------------------------9--------9---
D|-----9--------9--------9--9-----9--9-
A|----9--9-----9--9---7--------7-------
E|-7--------7--------------------------

            
Submit corrections

↑ Back to top | Tablatures and chords for acoustic guitar and electric guitar, ukulele, drums are parodies/interpretations of the original songs. You may use it for private study, scholarship, research or language learning purposes only