Home » D » Dredg »

Dredg - Traversing Through The Arctic Cold We Search For The Spirit Of Yuta Tabs

Artists:  A B C D E F G H I J K L M N O P Q R S T U V W X Y Z # 

Traversing Through The Arctic Cold We Search For The Spirit Of Yuta Tabs

(ver. 1) Click to play this song!
Dredg
 Rating:
4/5 (4 votes)
                Intro(0:00):
e|-----------|
B|8--7--7--5-|
G|7--7--5--5-|  Strum Accordingly
D|x--x--x--x-|
A|7--7--0--0-|
E|-----------|

2nd Part (0:51):
e|----2---0-0--|------2---2h3-3-3----|---2-----0-0----|---2----2h3-3-3----|
B|-------------|---------------------|----------------|-------------------|
G|-------------|---------------------|----------------|-------------------|
D|1s2--2-------|-1s2---2-------------|----------------|-------------------|
A|-------------|---------------------|-3----3---------|-3---3-------------|
E|-------------|---------------------|----------------|-------------------|

e|----2---0-0--|------2---2h3-3-3----|---2-----0-0----|-------------------|
B|-------------|---------------------|----------------|-3-3-3--1-1-1-1-1--|
G|-------------|---------------------|----------------|-------------------|
D|1s2--2-------|-1s2---2-------------|----------------|-------------------|
A|-------------|---------------------|-3----3---------|-------------------|
E|-------------|---------------------|----------------|-------------------|

Part 3(1:06)
e|-15-12--------------|-----------------------|
B|--------------------|--15-12----------------|
G|--------------------|-----------------------|
D|--------14------14--|----------14-------14--|
A|-----------14-------|-------------14--------|
E|--------------12----|----------------12-----|

Then when it goes into higher notes

e|-19-12--------------|--17-12-----------------|
B|--------------------|------------------------|
G|--------------------|------------------------|
D|--------14------14--|----------14-------14---|
A|-----------14-------|-------------14---------|
E|--------------12----|----------------12------|

e|-15-12--------------|--14-12-----------------|
B|--------------------|------------------------|
G|--------------------|------------------------|
D|--------14------14--|----------14-------14---|
A|-----------14-------|-------------14---------|
E|--------------12----|----------------12------|

then at around 2 minutes

e|------------|
B|88--8--8----|
G|77--7--7----|
D|xx--x--x----|
A|77--7--7----|
E|------------|

e|------------|
B|77--7--7----|
G|77--7--7----|
D|xx--x--x----|
A|77--7--7----|
E|------------|

e|------------|
B|7--7--7--7--|
G|5--5--5--5--|
D|x--x--x--x--|
A|0--0--0--0--|
E|------------|

e|------------|
B|5--5--5--5--|
G|5--5--5--5--|
D|x--x--x--x--|
A|0--0--0--0--|
E|------------|
            
Submit corrections

↑ Back to top | Tablatures and chords for acoustic guitar and electric guitar, ukulele, drums are parodies/interpretations of the original songs. You may use it for private study, scholarship, research or language learning purposes only