» » »

Dredg - Tanbark Tabs

Artists:  A B C D E F G H I J K L M N O P Q R S T U V W X Y Z # 

Tanbark Tabs

(ver. 1) Click to play this song!
Dredg
 Rating:
4/5 (4 votes)

 Tanbark lessons Tabs too difficult? Try these video lessons and learn fast
 
                
Standard tuning

Listen the CD to get the timing

Clean - Reverb

Intro

e|-----------------|
B|--14--14--12--9--|
G|--14--13--11-----|
D|----------12--9--|
A|-----------------|
E|--14--12--10--9--|

Distorsion

Chorus


e|-----------------|
B|--2--14--12--9---|
G|--2--13--11------|
D|---------12--9---| fast picking
A|-----------------|
E|--2--12--10--9---|

e|-----------------------|
B|--(2)-(2)-(2)-(2)-- ---| ghost notes
G|---2---2---2---2-------|
D|-----------------------|
A|-----------------------|
E|---2---2---2---2-------|

Verse


e|-------------------|
B|--(2)-(2)-(2)-(2)--|
G|---2---2---2---2---|
D|-------------------|
A|-------------------|
E|---2---2---2---2---|

Verse 2

e|-----------------|
B|-----------------|
G|--11/10--10--10--|
D|-----------------|
A|--12/11--11--11--|
E|--10/9---9---9---|

Chorus

e|-----------------|
B|--2--14--12--9---|
G|--2--13--11------|
D|---------12--9---| fast picking
A|-----------------|
E|--2--12--10--9---|

e|-----------------|
B|-----------------|
G|-----------------|
D|--4--6--7--11----|
A|--4--6--7--11----|
E|--2--4--5--9-----|

Mid song (not sure about this)

e|-----------------------------|
B|--2--(2)------2--(2)---------|
G|--2---2~------2---2~--    ---|let ring the ~ notes
D|-----------------------------|
A|-----------------------------|
E|--2---2~------0---0----------|

e|------------|
B|--66-77-99--|
G|------------|
D|--66-77-99--|   fast picking
A|--44-55-77--|
E|------------|

Outro

e|------------------------------|
B|-----------------------2-(2)--|
G|---2-4-6-11--2-4-6-10--2--2~--|
D|------------------------------|
A|-------7-12------7-11---------|
E|---2-4-5-10--2-4-5-9---2--2~--|

enjoy.
            
Submit corrections


        Tanbark lessons Hard to play? Try these video lessons and learn fast Tanbark lessons
        
↑ Back to top | Tablatures and chords for acoustic guitar and electric guitar, ukulele, drums are parodies/interpretations of the original songs. You may use it for private study, scholarship, research or language learning purposes only