» » »

Dredg - Same Ol' Road Tabs

Artists:  A B C D E F G H I J K L M N O P Q R S T U V W X Y Z # 

Same Ol' Road Tabs

(ver. 1) Click to play this song!
Dredg
 Rating:
4/5 (4 votes)

 Same Ol' Road lessons Tabs too difficult? Try these video lessons and learn fast
 
                DREDG - SAME OL’ ROAD
ALBUM - EL CIELO

TAB CREATED BY MARCUS FOSTER
This tab took a long time but it is correct unlike any other tab for this song on the internet.

For the rhythm just listen to the song.

prechorus
E  :------------------------------------------------------------------
B  :----------------6-p5---5------------------------6-p5---5----------
G  :----7-------7--------------7------7-----7-----7------------7------
D  :8-------8----------------------8----8-------8------------------8--
A  :------------------------------------------------------------------
E  :------------------------------------------------------------------


E  :------------------------------------------------------------------
B  :----------------6-p5---5------------------------6-p5---5----------
G  :--7-----7-----7------------7------7-----7-----7------------7------
D  :----8-------8------------------8----8-------8------------------8--
A  :------------------------------------------------------------------
E  :------------------------------------------------------------------


Chorus
E  :--------------------------------------------------------------------
B  :--------------------------------------------------------------------
G  :--------------------------------------------------------------------
D  :15-15-15-15-15-15-15-15-15-15-15-15-15-15-15-15-15-15-15-15-15-15-15
A  :12-12-12-12-12-12-12-12-12-12-12-12-12-13-13-13-13-13-13-13-13-13-13
E  :10-10-10-10-10-10-10-10-10-10-10-10-10-11-11-11-11-11-11-11-11-11-11
          

E  :---------------------------------------------------------------------
B  :---------------------------------------------------------------------
G  :3-3-3-3-3-3-3-3-3-3-3-3-3-3------------------------------------------
D  :x-x-x-x-x-x-x-x-x-x-x-x-x-x-10-10-10-10-10-10-10-10-10-10-10-10-10-10
A  :x-x-x-x-x-x-x-x-x-x-x-x-x-x-8--8--8--8--8--8--8--8--8--8--8--8--8--8-
E  :3-3-3-3-3-3-3-3-3-3-3-3-3-3-6--6--6--6--6--6--6--6--6--6--6--6--6--6-


E  :---------------------------------------------------------------------
B  :---------------------------------------------------------------------
G  :---------------------------------------------------------------------
D  :15-15-15-15-15-15-15-15-15-15-15-15-15-15-15-15-15-15-15-15-15-15-15-
A  :12-12-12-12-12-12-12-12-12-12-12-12-12-13-13-13-13-13-13-13-13-13-13-
E  :10-10-10-10-10-10-10-10-10-10-10-10-10-11-11-11-11-11-11-11-11-11-11-


E  :---------------------------------------------------------------------
B  :---------------------------------------------------------------------
G  :15-15-15-15-15-15-15-15-15-15-15-15-17-17-19-14-14-14-14-14-14-14-14-
D  :17-17-17-17-17-17-17-17-17-17-17-17-17-17-17-15-15-15-15-15-15-15-15-
A  :-X-X-X-X-X-X-X-X-X-X-X-X-X-X-X-X-X-X-X-X-X-X-X-X-X-X-X-X-X-X-X-X-X-X-
E  :15-15-15-15-15-15-15-15-15-15-15-15-15-15-15-13-13-13-13-13-13-13-13-


After chorus

E  :-------------------------------------------------------------------
B  :-------------------------------------------------------------------
G  :-------------------------------------------------------------------
D  :--------7-\--(5)--5-----------5--------------5---------------------
A  :----5---------------------5--------------5-----------5-------5-----
E  :3--------------------------------------------------------3---------



E  :-------------------------------------------------------------------
B  :-------------------------------------------------------------------
G  :--------10-\--(8)--8-----------8--------------8--------------------
D  :----8----------------------8--------------8-----------8-------8----
A  :6---------------------------------------------------------6--------
E  :-------------------------------------------------------------------


E  :-----------------------------------------------------------------
B  :-----------------------------------------------------------------
G  :--------7-\--(5)--5-----------3--------------3-------------------
D  :----5---------------------5--------------5-----------5-------5---
A  :3--------------------------------------------------------3-------
E  :-----------------------------------------------------------------

E  :------------------------------------------------------------------
B  :------------------------------------------------------------------
G  :--------10-\--(8)--8-----------8--------------8-------------------
D  :----8----------------------8--------------8-----------8-------8---
A  :6---------------------------------------------------------6-------
E  :------------------------------------------------------------------


3’21” WHEN IT KICKS IN

E  :-------------------------------------------------------------------
B  :-------------------------------------------------------------------
G  :15-15-15-15-15-15-15-15-15-15-15-15-14-14-14-14-14-14-14-14-12-12-12
D  :X-X-X-X-X-X-X-X-X-X-X-X-X-X-X-X-X-X-X-X-X-X-X-X-X-X-X-X-X-X-X-X-X-X-   
A  :X-X-X-X-X-X-X-X-X-X-X-X-X-X-X-X-X-X-X-X-X-X-X-X-X-X-X-X-X-X-X-X-X-X-
E  :10-10-10-10-10-10-10-10-10-10-10-10-11-11-11-11-11-11-11-11-11-11-11


E  :-------------------------------------------------------------------
B  :-------------------------------------------------------------------
G  :15-15-15-15-15-15-15-15-15-15-15-15-14-14-14-14-14-14-14-14-12-12-12
D  :X-X-X-X-X-X-X-X-X-X-X-X-X-X-X-X-X-X-X-X-X-X-X-X-X-X-X-X-X-X-X-X-X-X-   
A  :X-X-X-X-X-X-X-X-X-X-X-X-X-X-X-X-X-X-X-X-X-X-X-X-X-X-X-X-X-X-X-X-X-X-
E  :10-10-10-10-10-10-10-10-10-10-10-10-11-11-11-11-11-11-11-11-11-11-11


E  :---------------------------------------------------------------------
B  :---------------------------------------------------------------------
G  :15-15-15-15-15-15-15-15-15-15-15-15-17-17-19-14-14-14-14-14-14-14-14-
D  :17-17-17-17-17-17-17-17-17-17-17-17-17-17-17-15-15-15-15-15-15-15-15-
A  :-X-X-X-X-X-X-X-X-X-X-X-X-X-X-X-X-X-X-X-X-X-X-X-X-X-X-X-X-X-X-X-X-X-X-
E  :15-15-15-15-15-15-15-15-15-15-15-15-15-15-15-13-13-13-13-13-13-13-13-


E  :-----------------------------------------------------------------------
B  :------------------------------------15-15-15-15-15-------16-16-16-15-15
G  :12-12-12-12-12-12-12-12-12-12-12-12-12-12-12-12-12-11-11-11-11-11-11-11
D  :13-13-13-13-13-13-13-13-13-13-13-13-13-13-13-13-13-12-12-12-12-12-12-12
A  :X-X-X-X-X-X-X-X-X-X-X-X-X-X-X-X-X-X-X-X-X-X-X-X-X-X-X-X-X-X-X-X-X-X-X-X
E  :11-11-11-11-11-11-11-11-11-11-11-11-11-11-11-11-11-10-10-10-10-10-10-10


CHORUS PART BUT SLIGHTLY DIFFERENT

E  :---------------------------------------------------------------------
B  :---------------------------------------------------------------------
G  :3-3-3-3-3-3-3-3-3-3-3-3-3-3------------------------------------------
D  :x-x-x-x-x-x-x-x-x-x-x-x-x-x-10-10-10-10-10-10-10-10-10-10-10-10-10-10
A  :x-x-x-x-x-x-x-x-x-x-x-x-x-x-8--8--8--8--8--8--8--8--8--8--8--8--8--8-
E  :3-3-3-3-3-3-3-3-3-3-3-3-3-3-6--6--6--6--6--6--6--6--6--6--6--6--6--6-


E  :---------------------------------------------------------------------
B  :---------------------------------------------------------------------
G  :---------------------------------------------------------------------
D  :15-15-15-15-15-15-15-15-15-15-15-15-15-15-15-15-15-15-15-15-15-15-15-
A  :12-12-12-12-12-12-12-12-12-12-12-12-12-13-13-13-13-13-13-13-13-13-13-
E  :10-10-10-10-10-10-10-10-10-10-10-10-10-11-11-11-11-11-11-11-11-11-11-



E  :---------------------------------------------------------------------
B  :---------------------------------------------------------------------
G  :3-3-3-3-3-3-3-3-3-3-3-3-3-3------------------------------------------
D  :x-x-x-x-x-x-x-x-x-x-x-x-x-x-10-10-10-10-10-10-10-10-10-10-10-10-10-10
A  :x-x-x-x-x-x-x-x-x-x-x-x-x-x-8--8--8--8--8--8--8--8--8--8--8--8--8--8-
E  :3-3-3-3-3-3-3-3-3-3-3-3-3-3-6--6--6--6--6--6--6--6--6--6--6--6--6--6-

E  :---------------------------------------------------------------------
B  :---------------------------------------------------------------------
G  :---------------------------------------------------------------------
D  :15-15-15-15-15-15-15-15-15-15-15-15-15-15-15-15-15-15-15-15-15-15-15-
A  :12-12-12-12-12-12-12-12-12-12-12-12-12-13-13-13-13-13-13-13-13-13-13-
E  :10-10-10-10-10-10-10-10-10-10-10-10-10-11-11-11-11-11-11-11-11-11-11-


E  :---------------------------------------------
B  :---------------------------------------------
G  :15-15-15-15-15-15-15-15-15-15-15-15-17-17^^^^
D  :17-17-17-17-17-17-17-17-17-17-17-17-17-17^^^^
A  :-X-X-X-X-X-X-X-X-X-X-X-X-X-X-X-X-X-X-X-X-----
E  :15-15-15-15-15-15-15-15-15-15-15-15-15-15^^^^
            
Submit corrections


        Same Ol' Road lessons Hard to play? Try these video lessons and learn fast Same Ol' Road lessons
        
↑ Back to top | Tablatures and chords for acoustic guitar and electric guitar, ukulele, drums are parodies/interpretations of the original songs. You may use it for private study, scholarship, research or language learning purposes only