» » »

Dredg - Same Ol' Road Bass

Artists:  A B C D E F G H I J K L M N O P Q R S T U V W X Y Z # 

Same Ol' Road Bass

(ver. 1) Click to play this song!
Dredg
 Rating:
4/5 (4 votes)

 Same Ol' Road lessons Tabs too difficult? Try these video lessons and learn fast
 
                Listen to the record for timing, exact articulation, etc.
I did not include verse/chorus markings. This is because the
tab follows the path of the song exactly. Listen to the song once
through while reading straight through this transcription
(remembering to heed the repeat markings denoted by '2X',
'3X', etc.) and you will see it follows the song. Also, this and
other El Cielo songs I have tabbed are for 5 string bass. This is
because Drew plays the songs on a 5 string, because the voicing
sounds better in the hand positions it provides, and because I
am too lazy to transpose it to 4 string in drop whatever tuning
(D usually and on some songs B). If you really need it transposed
that badly, e-mail me and maybe i'll do it.


/ = Slide up neck
\ = Slide down neck
h = Hammer-on
p = Pull-off
----------------------
P = Pop string
S = Slap string
T = Thumbstyle picking (pluck down over string with thumb like classical 
guitar)
^ = Marcatto (Powerful attack, accent)
~ = Vibrato


The palm mute note the slides down is thumbstyle: mute the string moderately 
far
up the string and pluck down with the thumb.


4X
G|--------------------------------------------------|
D|--------------------------------------------------|
A|--------------------------------------------------|
E|-15\-3-3-3--15\-3-3-3--15\-3-3-3--15\-3--3-3-3----|
B|--------------------------------------------------|

G|------------------------|
D|-----8----8-----8----8--|
A|----8---8------8---8----|
E|-6----------6-----------|
B|------------------------|

G|----------------------------------------------------|
D|----------------------------------------------------|
A|----------------------------------------------------|
E|-3---3-3-3--15\-3-3-3--15\-3-3-3--3/15\-3--3-3-3----|
B|----------------------------------------------------|

2X
G|--------------------------------------------------|
D|--------------------------------------------------|
A|--------------------------------------------------|
E|-15\-3-3-3--15\-3-3-3--15\-3-3-3--15\-3--3-3-3----|
B|--------------------------------------------------|

G|-------------------------------------|
D|-----8----8-----8----8-----6---------|
A|----8---8------8---8------6----------|
E|-6----------6----------3-------1/13--|
B|-------------------------------------|

G|-----------------------------------------------------------------|
D|-----------------------------------------------------------------|
A|-5--5-5-5-5-5-5--6--6-6-6-6-6-6------------------1--1-1-1-1-1-1--|
E|---------------------------------3--3-3-3-3-3-3------------------|
B|-----------------------------------------------------------------|

G|-----------------------------------------------------------------|
D|-----------------------------------------------------------------|
A|-5--5-5-5-5-5-5--6--6-6-6-6-6-6----------------------------------|
E|---------------------------------3--3-3-3-3-3-3--1--1-1-1-1-1-1--|
B|-----------------------------------------------------------------|

G|---------------------------------------|
D|---------------------------------------|
A|-3----6------------------------3----6--|
E|-----------3---------3-----------------|
B|----------------4---------4------------|

G|------|
D|------|
A|------|
E|-10\--|
B|------|
   Pm__

G|-------------------------------------------------------------------------|
D|-------------------------------------------------------------------------|
A|-------------------------------6--6-6-6-6-6-6-5--5--5-5-5--5-5-5-5-5-5-5-|
E|-3--3-3-3-3-3-3-1--1-1-1-1-1-1-------------------------------------------|
B|-------------------------------------------------------------------------|

G|--------------------------------------------------------|
D|--------------------------------------------------------|
A|---------------1--1-1-1-1-1--5--5-5-5-5-5--6--6-6-6-6-6-|
E|-3--3-3-3-3-3-------------------------------------------|
B|--------------------------------------------------------|

G|--------------------------------------------------------|
D|--------------------------------------------------------|
A|-----------------------------5--5-5-5-5-5--6--6-6-6-6-6-|
E|-3--3-3-3-3-3--1--1-1-1-1-1-----------------------------|
B|--------------------------------------------------------|

G|-----------------------------|
D|-----------------------------|
A|-7--7-7-7-7-7--8--8-8-8-8-8--|
E|-----------------------------|
B|-----------------------------|

3X
G|-10-12---------------------------------10-12-----------------------|
D|-------10-12-12------------------------------10-12-----------------|
A|----------------10-10-10-10-10-10-10---------------10-10-10-10-10--|
E|-------------------------------------------------------------------|
B|-------------------------------------------------------------------|

G|-10-12--------------------------------|
D|-------10-12-12-----------------------|
A|----------------10-10-10-10-10-10-10--|
E|--------------------------------------|
B|--------------------------------------|

G|---|
D|---|
A|---|
E|-3-|
B|---|
            
Submit corrections


        Same Ol' Road lessons Hard to play? Try these video lessons and learn fast Same Ol' Road lessons
        
↑ Back to top | Tablatures and chords for acoustic guitar and electric guitar, ukulele, drums are parodies/interpretations of the original songs. You may use it for private study, scholarship, research or language learning purposes only