» » »

Dredg - Of The Room Tabs

Artists:  A B C D E F G H I J K L M N O P Q R S T U V W X Y Z # 

Of The Room Tabs

(ver. 2) Click to play this song!
Dredg
 Rating:
4/5 (4 votes)

 Of The Room lessons Tabs too difficult? Try these video lessons and learn fast
 
                
Comment: This isn't the way I play the song....But it sounds more
correct to what the guitar is doing. The song is a very Bass driven
song, the guitar does very little bass\root note chords. He spends 
more time on high end octives.

Song Structure:
Intro
Verse 1
Chorus
Verse 2
Chorus X2
Bridge
Verse 2
Intro
Chorus
Verse 1


Intro

E-|---------------------|-------------------|
B-|-------8------8------|-----8-----5-------|
G-|---10-----10---------|--5-----5----------|
D-|---------------------|-------------------|
A-|---------------------|-------------------|
E-|---------------------|-------------------|

E||--5---5---5---5---5---5---||--8---8---8---8---8---8---|
B||--8---8---8---8---8---8---||--8---8---8---8---8---8---|
G||--------------------------||--------------------------|
D||--------------------------||--------------------------|
A||--------------------------||--------------------------|
E||--------------------------||--------------------------|

Verse 1
                    X16
E-|---------5---------|
B-|-------------------|
G-|---2/-5------------|
D-|-------------------|
A-|-------------------|
E-|-------------------|

Chorus

E-|-------------------|----------------------|------------------|-----------------------|
B-|-------------------|----------------------|------------------|-----------------------|
G-|---9----9--9----9--|--12----12--12----12--|--9----9--9----9--|--10--10----10--10-----|
D-|---7----7--7----7--|--10----10--10----10--|--7----7--7----7--|-----------------------|
A-|---0----0--0----0--|--10----10--10----10--|--7----7--7----7--|--8---8-----8---8------|
E-|-------------------|----------------------|------------------|-----------------------|

E-|-------------------|----------------------|------------------|
B-|-------------------|----------------------|------------------|
G-|---9----9--9----9--|--12----12--12----12--|--9----9--9----9--|
D-|---7----7--7----7--|--10----10--10----10--|--7----7--7----7--|
A-|---0----0--0----0--|--10----10--10----10--|--7----7--7----7--|
E-|-------------------|----------------------|------------------|

E-|--------------------------------------|
B-|--------------------------------------|
G-|-----------12-12-12----------10-10-10-|
D-|--10-10-10----------14-14-14----------|
A-|--12-12-12-12-12-12-12-12-12-12-12-12-|
E-|--------------------------------------|

Verse 2
                    X12                 X4                  X4
E-|---------5---------|---------5---------|---------5---------|
B-|-------------------|-------------------|-------------------|
G-|---2/-5------------|---5/-2------------|-------------------|
D-|-------------------|-------------------|----3--0-----------|
A-|-------------------|-------------------|-------------------|
E-|-------------------|-------------------|-------------------|

Chorus

E-|-------------------|----------------------|------------------|-----------------------|
B-|-------------------|----------------------|------------------|-----------------------|
G-|---9----9--9----9--|--12----12--12----12--|--9----9--9----9--|--10--10----10--10-----|
D-|---7----7--7----7--|--10----10--10----10--|--7----7--7----7--|-----------------------|
A-|---0----0--0----0--|--10----10--10----10--|--7----7--7----7--|--8---8-----8---8------|
E-|-------------------|----------------------|------------------|-----------------------|

E-|-------------------|----------------------|------------------|
B-|-------------------|----------------------|------------------|
G-|---9----9--9----9--|--12----12--12----12--|--9----9--9----9--|
D-|---7----7--7----7--|--10----10--10----10--|--7----7--7----7--|
A-|---0----0--0----0--|--10----10--10----10--|--7----7--7----7--|
E-|-------------------|----------------------|------------------|

          
E-|------Play-this-the-first-time--------|--Play--this-the-second-time|
B-|--------------------------------------|----------------------------|
G-|-----------12-12-12----------10-10-10-|--5-5-5-5-5-5-5-5-5-5-5-5---|
D-|--10-10-10----------14-14-14----------|----------------------------|
A-|--12-12-12-12-12-12-12-12-12-12-12-12-|--3-3-3-3-3-3-3-3-3-3-3-3---|
E-|--------------------------------------|----------------------------|

Bridge

E-|-------------------------|------------------------|
B-|-------------------------|------------------------|
G-|---5--5-5-5-5-5--5-5-5-5-|--5--5-5-5-5-5--5-5-5-5-|
D-|---5--5-5-5-5-5--5-5-5-5-|--5--5-5-5-5-5--5-5-5-5-|
A-|---3--3-3-3-3-3--3-3-3-3-|--3--3-3-3-3-3--3-3-3-3-|
E-|-------------------------|------------------------|

E-|------------------------|------------------------|
B-|------------------------|------------------------|
G-|--9--9-9-9-9-9--9-9-9-9-|--9--9-9-9-9-9--9-9-9-9-|
D-|--7--7-7-7-7-7--7-7-7-7-|--7--7-7-7-7-7--7-7-7-7-|
A-|--0--0-0-0-0-0--0-0-0-0-|--0--0-0-0-0-0--0-0-0-0-|
E-|------------------------|------------------------|
                         X2
E-|------------------------|------------------------|
B-|------------------------|------------------------|
G-|------------------------|------------------------|
D-|--7-8-7---7-8-7---7-8-7-|--7-------7-------7-----|
A-|--7-8-7---7-8-7---7-8-7-|--7-------7-------7-----|
E-|--5-6-5---5-6-5---5-6-5-|--5-------5-------5-----|
            
Submit corrections


        Of The Room lessons Hard to play? Try these video lessons and learn fast Of The Room lessons
        
↑ Back to top | Tablatures and chords for acoustic guitar and electric guitar, ukulele, drums are parodies/interpretations of the original songs. You may use it for private study, scholarship, research or language learning purposes only