Home » D » Dream Evil »

Dream Evil - My Number One Tabs

Artists:  A B C D E F G H I J K L M N O P Q R S T U V W X Y Z # 

My Number One Tabs

(ver. 2) Click to play this song!
Dream Evil
 Rating:
4.2/5 (5 votes)
                (Intro)
    This is my first tab posted... I did the best I could...THANK YOU

e|-7-9-10-9-----7-9-10-9----12--12--12-11-10-9-7-9-10-9-------|
 |------------------------------------------------------------|
 |------------------------------------------------------------|
 |------------------------------------------------------------|
 |------------------------------------------------------------|
E|------------------------------------------------------------|


e|----------------------------------------------------------------|
 |----------------------------------------------------------------|
 |-7-9-10-9-----7-9-10-9----12--12--12-11-10-9-7-9-10-9-----------|
 |-7-9-10-9-----7-9-10-9----12--12--12-11-10-9-7-9-10-9-----------|
 |-7-9-10-9-----7-9-10-9----12--12--12-11-10-9-7-9-10-9-----------|
E|----------------------------------------------------------------|
            
Submit corrections

↑ Back to top | Tablatures and chords for acoustic guitar and electric guitar, ukulele, drums are parodies/interpretations of the original songs. You may use it for private study, scholarship, research or language learning purposes only