Home » D » Drake Bell »

Drake Bell - What You Need Chords

Artists:  A B C D E F G H I J K L M N O P Q R S T U V W X Y Z # 

What You Need Chords

(ver. 1) Click to play this song!
Drake Bell
VERSE 1:
G                             Em
  We’ve done this many times,    take you all over town
A7                             D7
  Stay up late at night, just hoping we might fool around
G                        Em
  I gave you everything,    now show me what to do
A7                            D7
  I bet you really think that I’m just here to f**k with you
 
 
 
CHORUS 1:
  G       Em                 Am7
  I know what you need, know what you need
       D7
  You need for me to tell you that
  G      Em                Am7
  I got what you need, got what you need
      D7
  But I could never tell you that
 
 
 
REFRAIN:
    G                        Em            A7                       D7
e|--------------------------------------|--------------------------------------------------|
B|--------------------------------------|--------------------------------------------------|
G|------------------12---------------9--|----------------9-12-9----------------------------|
D|-------------9-12----12-9--------9----|-------------11--------11--12-10-9----------------|
A|--10--10-10-------------------10------|--12--12-12------------------------12-10-9--------|
E|---------------------------12---------|-------------------------------------------12-10--|
 
 
 
VERSE 2:
G                           Em
  You say that you believe      in trading one-for-two
A7                             D7
  You never thought of me, too bad I always think of you
G                        Em
  You are the generator,    I am electrified
A7                       D7
  See me a little later, I'll feel better amplified
 
 
 
CHORUS 2:
  G       Em                 Am7
  I know what you need, know what you need
       D7
  You need for me to tell you that
  G      Em                Am7
  I got what you need, got what you need
      D7
  But I could never tell you that
  G       Em                 Am7
  I know what you need, know what you need
       D7
  You need for me to tell you that
  G      Em                Am7
  I got what you need, got what you need
      D7
  But I could never tell you that
 
 
 
REFRAIN:
    G                        Em            A7                       D7
e|--------------------------------------|--------------------------------------------------|
B|--------------------------------------|--------------------------------------------------|
G|------------------12---------------9--|----------------9-12-9----------------------------|
D|-------------9-12----12-9--------9----|-------------11--------11--12-10-9----------------|
A|--10--10-10-------------------10------|--12--12-12------------------------12-10-9--------|
E|---------------------------12---------|-------------------------------------------12-10--|
 
 
 
BRIDGE:
C                            G
  If you could say it once,    I’ll say it all the time
D7                                G
  But something’s getting in the way, oh and
C                     G
  If I am so afraid,    then you won’t hear it back
D7
  And I will never know 'cause I could never tell you that
  D7
 (I could never tell you that) no, I could never tell you that
 
 
 
CHORUS 3:
  G       Em                 Am7
  I know what you need, know what you need
       D7
  You need for me to tell you that
  G      Em                Am7
  I got what you need, got what you need
      D7
  But I could never tell you that
  G       Em                 Am7
  I know what you need, know what you need
       D7                               D7
  You need for me to tell you that (No, I could never tell you that)
 
 
 
CHORUS 4:
  G       Em                 Am7
  I know what you need, know what you need
       D7
  You need for me to tell you that
  G      Em                Am7
  I got what you need, got what you need
      D7
  But I could never tell you that
  G       Em                 Am7
  I know what you need, know what you need
       D7
  You need for me to tell you that
  G      Em                Am7
  I got what you need, got what you need
      D7
  But I could never tell you that
            
Submit corrections

↑ Back to top | Tablatures and chords for acoustic guitar and electric guitar, ukulele, drums are parodies/interpretations of the original songs. You may use it for private study, scholarship, research or language learning purposes only