Home » D » Drake Bell »

Drake Bell - I Know Bass

Artists:  A B C D E F G H I J K L M N O P Q R S T U V W X Y Z # 

I Know Bass

(ver. 1) Click to play this song!
Drake Bell

Great new song! This is my first tab, but I'd say its at least 90% correct. Enjoy :D

Verse 1:
G|----------------------------------------------------------|
D|----------------------------------------------------------| X2
A|--------------------------2-3---3-3---3-5-3-6---3-6-6--6\-|
E|-3---3-3---3-3---3-3--3-5---------------------------------|

Pre-Chorus:
G|----------------------------------------|
D|----------------5-----4-5-4-------------|  X2 
A|-------2--2-2-2-------------7-5---------|
E|-0-0-0------------3-------------5-5-5-5-|

Then:
G|---------------------------------|
D|---------------------------------|
A|-----------------5-5-5-5-5-5-5-5-|
E|-5-5-5-5-5-5-5-5-----------------|

Chorus:
G|----------------------------------------------------------------------|   
D|----------------------------------------------------------------------|X2 
A|--------------2-3--2-2-2-2-2-3-3/5-3------------------3-3-3-3-3-3-3-3-|   
E|-3-3-3-3-3-5--------------------------0-0-0-0-3-3-3-3-----------------|   
									    
G|----|
D|----|
A|----|
E|-3\-|
 2nd TIME

Verse 2:
G|--------------------------------------------------------------|
D|--------------------------------------------------------------| X2
A|----------------------------2-3---3-6-6---3-5-3-6---3-6-6--6\-|
E|-3---3-3-3---3-3---3-3--3-5-----------------------------------|

Pre-Chorus:
G|-----------------------------------|
D|----------------5------------------| X2
A|-------2--2-2-2--------------------|
E|-0-0-0------------3-3-3-3--5-5-5-5-|

Then:
G|---------------------------------|
D|---------------------------------|
A|-----------------5-5-5-5-5-5-5-5-|
E|-5-5-5-5-5-5-5-5-----------------|

Chorus:
G|----------------------------------------------------------------------|   
D|----------------------------------------------------------------------|X2 
A|--------------2-3--2-2-2-2-2-3-3/5-3------------------3-3-3-3-3-3-3-3-|   
E|-3-3-3-3-3-5--------------------------0-0-0-0-3-3-3-3-----------------|   
									    
G|----|
D|----|
A|----|
E|-3\-|
 2nd TIME

Pre-Chorus/Bridge:
G|--------------------------------|
D|--------------------------------| X2
A|-7-7-77--6-6-66--5-5-55---------|
E|-------------------------5-5-55-|

Then:
G|---------------------------------|
D|---------------------------------|
A|-----------------5-5-5-5-5-5-5-5-|
E|-5-5-5-5-5-5-5-5-----------------|

Chorus:
G|----------------------------------------------------------------------|  
D|----------------------------------------------------------------------|X2
A|--------------2-3--2-2-2-2-2-3-3/5-3------------------3-3-3-3-3-3-3-3-|
E|-3-3-3-3-3-5--------------------------0-0-0-0-3-3-3-3-----------------|

Outro:
G|-------------------------------------------------|
D|-------------------------------------------------|
A|---------5-5-5-5---------5-5-5-5-----------------|
E|-3-3-3-3---------3-3-3-3---------3-------------3-|
            
Submit corrections

↑ Back to top | Tablatures and chords for acoustic guitar and electric guitar, ukulele, drums are parodies/interpretations of the original songs. You may use it for private study, scholarship, research or language learning purposes only