Home » D » Drake »

Drake - Too Good Chords

Artists:  A B C D E F G H I J K L M N O P Q R S T U V W X Y Z # 

Too Good Chords

(ver. 1) Click to play this song!
Drake
[Intro]

e|------------------5--------------------------------------------------------|
B|---------3-------------3---2/3---3---2-------3-----------------------------|
G|-----0---------------------2---------2---2------2--------------------------|
D|---------------------------------------------------------------------------|
A|---------------------------------------------------------------------------|
E|--3----------3-------------------------------------------------------------|

e|---------------------------------------------------------------------------|
B|---------3--------3--------2/3--3----2-------3-----------------------------|
G|----0----------------0-----2------2--2--2-------2--------------------------|
D|---------------------------------------------------------------------------|
A|---------------------------------------------------------------------------|
E|-3----------3-----------3--------------------------------------------------|



e|---------------------------------------------------------------------------|
B|---------3--------3--------2/3--3--2-------3-------------------------------|
G|----0----------------0-----2-------2---2-------2---------------------------|
D|---------------------------------------------------------------------------|
A|---------------------------------------------------------------------------|
E|-3----------------------3--------------------------------------------------|

e|---------------------------------------------------------------------------|
B|---------3--------3--------2/3--3---2--2/3--3--3---------------------------|
G|----0----------------0-----2--------2--2----2--2---2-----------------------|
D|---------------------------------------------------------------------------|
A|---------------------------------------------------------------------------|
E|-3----------3-----------3--------------------------------------------------|


(Repeat Chords)



If the tab is too hard or you want to play this song with just chords heres an easier and good sounding way
to play the song with strumming! Again, listen to the song while you play these chords and it should be easy 
to understand. Not exactly sure what these chords are called but Ill call them G Dsus & Asus.. close enough.

This is what the Chords look like 


    G       Dsus    Asus
    
e|--x-------x--------x -------------------------------------------------------------|
B|--3-------3--------2--------------------------------------------------------------|
G|--0-------2--------2--------------------------------------------------------------|
D|--0-------0--------0--------------------------------------------------------------|
A|--x-------x--------x--------------------------------------------------------------|
E|--3-------x--------x--------------------------------------------------------------|

This Is how you strum it somewhat. (its hard to write out)


    G        Dsus  Asus Dsus
e|--x-x-x-x-x-x-x-x-x-x-x-x--------------------------------------------------------------|
B|--3-3-3-3-3-3-3-3-2-2-3-3--------------------------------------------------------------|
G|--0-0-0-0-0-2-2-2-2-2-2-2--------------------------------------------------------------|
D|--0-0-0-0-0-0-0-0-0-0-0-0--------------------------------------------------------------|
A|--x-x-x-x-x-x-x-x-x-x-x-x--------------------------------------------------------------|
E|--3-3-3-3-3-x-x-x-x-x-x-x--------------------------------------------------------------|


[Intro] (The Dsus and Asus chords switch fast but its easy to do)

G Dsus Asus Dsus

G Dsus Asus Dsus


Oh yeah yeah yeah
Oh yeah yeah yeah
Yeah, look

G                            
I don't know how to talk to you
Dsus               Asus Dsus          G
I don't know how to ask you if you're okay
Dsus              Asus     Dsus    G
My friends always feel the need to tell me things
Dsus                   Asus Dsus     G             Dsus
Seems like they're just happier than us these days
      Asus  Dsus G                            
Yeah, these days I don't know how to talk to you
Dsus               Asus Dsus          G 
I don't know how to be there when you need me
Dsus              Asus  Dsus       G
It feels like the only time you'll see me
            Dsus                  Asus      Dsus      G            Dsus  Asus  Dsus          
Is when you turn your head to the side and look at me differently


          G          Dsus      Asus    Dsus         
Yeah, and last night I think I lost my patience
G          Dsus               Asus   Dsus
Last night I got high as your expectations
G          Dsus         Asus Dsus   G
Last night, I came to a realization
                   Dsus 
And I hope you can take it
  Asus         Dsus
I hope you can take it

G
I'm too good to you
Dsus        Asus    Dsus
I'm way too good to you
G      
You take my love for granted
Dsus         Asus  Dsus
I just don't understand it
G
No, I'm too good to you
Dsus        Asus    Dsus
I'm way too good to you
G     
You take my love for granted
Dsus         Asus Dsus
I just don't understand it

(Repeat for this verse)            
Submit corrections

↑ Back to top | Tablatures and chords for acoustic guitar and electric guitar, ukulele, drums are parodies/interpretations of the original songs. You may use it for private study, scholarship, research or language learning purposes only