» » »

Drake - One Dance Tabs

Artists:  A B C D E F G H I J K L M N O P Q R S T U V W X Y Z # 

One Dance Tabs

(ver. 1) Click to play this song!
Drake
 Rating:
4.3/5 (27 votes)

 One Dance  lessons Tabs too difficult? Try these video lessons and learn fast
 
                [Solo at the end of the song]
e|---------------|--0-3-2-3-2-0--5--|
B|--0-3-1-3-1-0--|------------------|
G|---------------|------------------|
D|---------------|------------------| 
A|---------------|------------------|
E|---------------|------------------|

[Chorus]
e|--0-0-0-0----|----------------|---------------|
B|----------0--|--0-0------0----|--1-0-----0----|
G|-------------|-------2-0---0--|------2-0---0--|
D|-------------|----------------|---------------|
A|-------------|----------------|---------------|
E|-------------|----------------|---------------|

e|---------------|---------|
B|--1-0-----0----|---------|
G|------2-0---0--|--0h2-0--|
D|---------------|---------|
A|---------------|---------|
E|---------------|---------|
            
Submit corrections


        One Dance  lessons Hard to play? Try these video lessons and learn fast One Dance  lessons
        
↑ Back to top | Tablatures and chords for acoustic guitar and electric guitar, ukulele, drums are parodies/interpretations of the original songs. You may use it for private study, scholarship, research or language learning purposes only