» » »

Drake - Gods Plan Tabs

Artists:  A B C D E F G H I J K L M N O P Q R S T U V W X Y Z # 

Gods Plan Tabs

(ver. 1) Click to play this song!
Drake
 Rating:
4.3/5 (12 votes)

 Gods Plan lessons Tabs too difficult? Try these video lessons and learn fast
 
                [Intro]
e|-----------------------------|-------------------------|
B|-----------------------------|-------------------------|
G|-----------------------------|---------0---------------|
D|-----------------------------|-------------------------|
A|---0-2-----3-2-0-0-----0---2-|-2-0---------------------|
E|-3-----3-3---------3-3---3---|-----3-3-----------------|

[Verse 1]
e|-----------------------------|-------------------------|
B|-----------------------------|-------------------------|
G|-----------------------------|-------------------------|
D|-2-2-0-0-----------------2-2-|-0-0-----------------2-2-|
A|---------3-2-2-2-2-0---------|-----3-2-0-2-2-0---------|
E|---------------------3-3-----|-----------------3-3-----|

[Verse 1 cont.]
e|-----------------------------|-------------------------|
B|-----------------------------|-------------------------|
G|-----------------------------|-------------------------|
D|-0-0-------------------------|-2-2-0-0---------------2-|
A|-----3-2-2-2-2-0-----2-2-0-0-|---------3-3-0-2-2-0-----|
E|-----------------3-3---------|---------------------3---|

[Verse 1 cont]
e|-----------------------------|-------------------------|
B|-----------------------------|-------------------------|
G|-----------------------------|-------------------------|
D|-2-0-0-------------2-2-0-0---|---------------2-2-0-0---|
A|-------3-2-2-0-------------3-|-2-0-2-2-0-------------3-|
E|---------------3-3-----------|-----------3-3-----------|

[Verse 1 cont.]
e|-----------------------------|-------------------------|
B|-----------------------------|-------------------------|
G|-----------------------------|-------------------------|
D|-----------------------------|-------------------------|
A|-2-0-2-2-0-------------------|-------------------------|
E|-----------3-3---------------|-------------------------|

[Chorus 1]
e|-----------------------------|-------------------------|
B|-----------------------------|-------------------------|
G|-----------------------------|-------------------------|
D|-------------0-------------0-|-------------0-----------|
A|-2-0---2-0-----3-2-2-2-2-2---|-3-2-2-2-2-2---3-2-2-2-2-|
E|-----3-----3-----------------|-------------------------|

[Chorus 1 cont.]
e|-----------------------------|-------------------------|
B|-----------------------------|-------------------------|
G|-----------------------------|-------------------------|
D|---0-------------0-----------|---0---------------------|
A|-2---3-2-2-2-2-2---3-2-2-2-2-|-2---3-2-2-2-2-2---------|
E|-----------------------------|-------------------------|

[Post-Chorus]
e|-----------------------------|-------------------------|
B|-----------------------------|-------------------------|
G|---------------------------3-|-2-0---------------------|
D|-2-------2-0-0-0-------------|-----0-----0---2-2-0-----|
A|---2-2-2-----------0-2-0-----|-------3-3---3-------3-3-|
E|-----------------3-------3---|-------------------------|

[Post-Chorus cont.]
e|-----------------------------|-----------------------------|
B|-----------------------------|-----------------------------|
G|-----------------------------|------------------------0-0-0|
D|-2-------2-0-0-0-------------|-----------------------------|
A|---2-2-2-----------0-2-0---3-|-2-0-0-----0---2-2-0---------|
E|-----------------3-------3---|-------3-3---3-------3-3-----|

[Verse 2]
e|-----------------------------|-------------------------|
B|-----------------------------|-------------------------|
G|-----------------------------|-------------------------|
D|-2-0-0-----------------------|-----------------------0-|
A|-------3-3-2-2-0---2-0-----3-|-2-0-2-0---2-0---2-0-----|
E|-----------------3-----3-3---|---------3-----3-----3---|

[Verse 2 cont.]
e|-----------------------------|-------------------------|
B|-----------------------------|-------------------------|
G|-----------------------------|-----------------------2-|
D|-----------------------------|-------------------------|
A|-3-0-0-0-0-0-0-0---2-0---3-2-|-0-0-0-0-0-0-0---2-0-----|
E|-----------------3-----3-----|---------------3-----3---|

[Verse 2 cont.]
e|-----------------------------|-------------------------|
B|---------0-----------------0-|---------------------0---|
G|-0-2-0-2---2-2-2-0-2-0-2-2---|-2-2-2-2-0-2-0-2-0-2---2-|
D|-----------------------------|-------------------------|
A|-----------------------------|-------------------------|
E|-----------------------------|-------------------------|

[Verse 2 cont.]
e|-----------------------------|-------------------------|
B|-----------------------------|-------------------------|
G|-2-0-2-0-2-0-2-0-2-----------|-------------------------|
D|-----------------------------|-------------------------|
A|-----------------------------|-------------------------|
E|-----------------------------|-------------------------|

[Chorus 2]
e|-----------------------------|-------------------------|
B|-----------------------------|-------------------------|
G|-----------------------------|-------------------------|
D|-------------0-------------0-|-------------0-----------|
A|-2-0---2-0-----3-2-2-2-2-2---|-3-2-2-2-2-2---3-2-2-2-2-|
E|-----3-----3-----------------|-------------------------|

[Chorus 2 cont.]
e|-----------------------------|-------------------------|
B|-----------------------------|-------------------------|
G|-----------------------------|-------------------------|
D|---0-------------0-----------|---0---------------------|
A|-2---3-2-2-2-2-2---3-2-2-2-2-|-2---3-2-2-2-2-2---------|
E|-----------------------------|-------------------------|

[Post-Chorus]
e|-----------------------------|-------------------------|
B|-----------------------------|-------------------------|
G|---------------------------3-|-2-0---------------------|
D|-2-------2-0-0-0-------------|-----0-----0---2-2-0-----|
A|---2-2-2-----------0-2-0-----|-------3-3---3-------3-3-|
E|-----------------3-------3---|-------------------------|

[Post-Chorus cont.]
e|-----------------------------|-----------------------------|
B|-----------------------------|-----------------------------|
G|-----------------------------|------------------------0-0-0|
D|-2-------2-0-0-0-------------|-----------------------------|
A|---2-2-2-----------0-2-0---3-|-2-0-0-----0---2-2-0---------|
E|-----------------3-------3---|-------3-3---3-------3-3-----|            
Submit corrections


        Gods Plan lessons Hard to play? Try these video lessons and learn fast Gods Plan lessons
        
↑ Back to top | Tablatures and chords for acoustic guitar and electric guitar, ukulele, drums are parodies/interpretations of the original songs. You may use it for private study, scholarship, research or language learning purposes only