» » »

Drake - Doing It Wrong Tabs

Artists:  A B C D E F G H I J K L M N O P Q R S T U V W X Y Z # 

Doing It Wrong Tabs

(ver. 1) Click to play this song!
Drake
 Rating:
4.1/5 (31 vote)

 Doing It Wrong lessons Tabs too difficult? Try these video lessons and learn fast
 
                E|-------------------------------------------------------------|
B|-------------------------------------------------------------|
G|------4------6--4------4----4/6-4----------------------------|
D|--4h7---7--4-------4h7---7---------2h4--4/6--4--2--2h4h2-----|
A|---------------------------------------------------------3~--|
E|-------------------------------------------------------------|

E|-------------------------------------------------------------|
B|-------------------------------------------------------------|
G|------4------6--4------4----4/6-4------------------4--3------|
D|--4h7---7--4-------4h7---7---------2h4--4/6--4~--------------|
A|-------------------------------------------------------------|
E|-------------------------------------------------------------|

E|---------------------------------------------------------------------|
B|------------------------------------------------/15~--17--15h17h15---|
G|--6--6h7h6--7/9--9/11------------------------------------------------|
D|----------------------11--9--7--7h9h7--------------------------------|
A|---------------------------------------------------------------------|
E|---------------------------------------------------------------------|

E|------------------------------------------|
B|--15--12---21/--19/--17/--15/12--12--19~--|
G|------------------------------------------|
D|------------------------------------------|
A|------------------------------------------|
E|------------------------------------------|

E|------------------------------------------|
B|--15--15h17h15~--17--17h19h19--19-21-22~--|
G|------------------------------------------|
D|------------------------------------------|
A|------------------------------------------|
E|------------------------------------------|

E|-------------------------------------------------------------------|
B|--19/21---19-17-15-----17/15---17-15-13----------------------------|
G|-------------------17-------------------15--13h15-17-15------------|
D|--------------------------------------------------------13~-13/15--|
A|-------------------------------------------------------------------|
E|-------------------------------------------------------------------|

E|----------------------------------------------------------------------------------------------|
B|----------------------------------------------------------------------------------------------|
G|---19-17---15h17--19-17-15--19-17---15h17--19-17-15--19-17--------------------------------19~-|
D|------------------------------------------------------------15h17--19-17-15--19-17~ 17-17-----|
A|----------------------------------------------------------------------------------------------|
E|----------------------------------------------------------------------------------------------|

E|---------------------------------------------------------------------------------|
B|---------------------------------------------------------------------------------|
G|--15h17--19-17-15--19-17---15h17--19-17-21-19--17-15-----------------------------|
D|-----------------------------------------------------17-17--15--2/4~--4h6h4--2~--|
A|---------------------------------------------------------------------------------|
E|---------------------------------------------------------------------------------|
            
Submit corrections


        Doing It Wrong lessons Hard to play? Try these video lessons and learn fast Doing It Wrong lessons
        
↑ Back to top | Tablatures and chords for acoustic guitar and electric guitar, ukulele, drums are parodies/interpretations of the original songs. You may use it for private study, scholarship, research or language learning purposes only