Home » D » Dragon Ash »

Dragon Ash - Sleep Tabs

Artists:  A B C D E F G H I J K L M N O P Q R S T U V W X Y Z # 

Sleep Tabs

(ver. 1) Click to play this song!
Dragon Ash

Very simple song, sounds great on an acoustic :)

VERSE (0:08)

     G               F
E|---3---3---3---3---1---1---1---1--|
B|---0---0---0---0---1---1---1---1--|
G|---0---0---0---0---2---2---2---2--|
D|---0---0---0---0---3---3---3---3--|
A|---2---2---2---2---3---3---3---3--|
E|---3---3---3---3---1---1---1---1--|

CHORUS

     Em              C       F
E|---0---0---0---0---0---0---1---1--|
B|---0---0---0---0---1---1---1---1--|
G|---0---0---0---0---0---0---2---2--|
D|---2---2---2---2---2---2---3---3--|
A|---2---2---2---2---3---3---3---3--|
E|---0---0---0---0-----------1---1--|

SOLO

E|-7--8--10--12---12\------10-----8--|
B|-8--8--10--12---12\--10------8-----|
G|-----------------------------------|
D|-----------------------------------|
A|-----------------------------------|
E|-----------------------------------|
            
Submit corrections

↑ Back to top | Tablatures and chords for acoustic guitar and electric guitar, ukulele, drums are parodies/interpretations of the original songs. You may use it for private study, scholarship, research or language learning purposes only