Home » D » Dragon Ash »

Dragon Ash - Shizukana Hibino Kaidanwo Tabs

Artists:  A B C D E F G H I J K L M N O P Q R S T U V W X Y Z # 

Shizukana Hibino Kaidanwo Tabs

(ver. 1) Click to play this song!
Dragon Ash
(variation 1)

e|---------------|-7-10------------|
B|-5--7--7h8p7---|-8-8--8--7h8p7---|
G|-5--7--------7-|------9--------7-|
D|---------------|-9---------------|
A|-7--9----------|------10---------|
E|---------------|-----------------|

(variation 2)

e|---------------|----------------|
B|---------------|----------------|
G|---------------|-4-7------------|
D|-2--4--4h5p4---|-5-5-5--4h5p4---|
A|-3--5--------5-|-----7--------5-|
E|---------------|----------------|            
Submit corrections

↑ Back to top | Tablatures and chords for acoustic guitar and electric guitar, ukulele, drums are parodies/interpretations of the original songs. You may use it for private study, scholarship, research or language learning purposes only