Home » D » Dragon Ash »

Dragon Ash - Rainy Day And Day Tabs

Artists:  A B C D E F G H I J K L M N O P Q R S T U V W X Y Z # 

Rainy Day And Day Tabs

(ver. 1) Click to play this song!
Dragon Ash

Best song on the album...

INTRO (0:00)
light palm-muting
E|---------------------------------|
B|---------------------------------|
G|---------------------------------|
D|-7-7-7-7-7-7-7-7/9-9-9-9\6-6-6-6-|
A|-7-7-7-7-7-7-7-7/9-9-9-9\6-6-6-6-|
E|-5-5-5-5-5-5-5-5/7-7-7-7\4-4-4-4-|x4

RIFF A (0:17)

E|----------------------------------->
B|----------------------------------->
G|-----------------5--5-------------->
D|-5/7--x-x-x-x-x--5--5----5---5---5->
A|-5/7--x-x-x-x-x--3--3----5---5---5->
E|-3/5--x-x-x-x-x----------3---3---3->

E|----------------------------------->
B|----------------------------------->
G|-----------------5--5----7---7---7->
D|-5/7--x-x-x-x-x--5--5----7---7---7->
A|-5/7--x-x-x-x-x--3--3----5---5---5->
E|-3/5--x-x-x-x-x-------------------->

E|----------------------------------->
B|----------------------------------->
G|-----------------5--5-------------->
D|-5/7--x-x-x-x-x--5--5----5---5---5->
A|-5/7--x-x-x-x-x--3--3----5---5---5->
E|-3/5--x-x-x-x-x----------3---3---3->

E|----------------------------------->
B|----------------------------------->
G|-----------------5--5----x---x---7->
D|-5/7--x-x-x-x-x--5--5----x---x---7->
A|-5/7--x-x-x-x-x--3--3----x---x---5->
E|-3/5--x-x-x-x-x-------------------->

E|----------------------------------->
B|----------------------------------->
G|-----------------5--5-------------->
D|-5/7--x-x-x-x-x--5--5----5---5---5->
A|-5/7--x-x-x-x-x--3--3----5---5---5->
E|-3/5--x-x-x-x-x----------3---3---3->

E|----------------------------------->
B|----------------------------------->
G|-----------------5--5----7---7---7->
D|-5/7--x-x-x-x-x--5--5----7---7---7->
A|-5/7--x-x-x-x-x--3--3----5---5---5->
E|-3/5--x-x-x-x-x-------------------->

E|----------------------------------->
B|----------------------------------->
G|-----------------5--5-------------->
D|-5/7--x-x-x-x-x--5--5----5---5---5->
A|-5/7--x-x-x-x-x--3--3----5---5---5->
E|-3/5--x-x-x-x-x----------3---3---3->

E|-----------------------------------|
B|-----------------------------------|
G|-----------------5-----5-----5-----|
D|-5/7--x-x-x-x-x--5-----5-----5-----|
A|-5/7--x-x-x-x-x--3-----3-----3-----|
E|-3/5--x-x-x-x-x--------------------|

VERSE (0:35)
light palm-muting
E|---------------------------------|
B|---------------------------------|
G|---------------------------------|
D|-7-7-7-7/9-9-9-9\6-6-6-6/7-7-7-7-|
A|-7-7-7-7/9-9-9-9\6-6-6-6/7-7-7-7-|
E|-5-5-5-5/7-7-7-7\4-4-4-4/5-5-5-5-|x4

PRE-CHORUS (0:52)

E|------------------------------------------>
B|------------------------------------------>
G|-7-7-7----------------5-5-5--------------->
D|-7-7-7-x-x-x-7-7-x-7--5-5-5-x-x-x-5-5-x-5->
A|-5-5-5-x-x-x-7-7-x-7--3-3-3-x-x-x-5-5-x-5->
E|-------x-x-x-5-5-x-5--------x-x-x-3-3-x-3->

E|------------------------------------------|
B|------------------------------------------|
G|-7-7-7----------------5-5-5---------------|
D|-7-7-7-x-x-x-7-7-x-7--5-5-5-x-x-x-5-------|
A|-5-5-5-x-x-x-7-7-x-7--3-3-3-x-x-x-5-------|
E|-------x-x-x-5-5-x-5--------x-x-x-3-------|

CHORUS (1:01)

E|----------------------------------->
B|----------------------------------->
G|----------------------------------->
D|-7-7-7-7-7-7-7-7--9-9-9-9-9-9-9-9-->
A|-7-7-7-7-7-7-7-7--9-9-9-9-9-9-9-9-->
E|-5-5-5-5-5-5-5-5--7-7-7-7-7-7-7-7-->

E|---------------------------------------------------|
B|---------------------------------------------------|
G|---------------------------------------------------|
D|-11-11-11-11-11-11-11-11-12-x-12-x-12-x-12---12-12-|
A|-11-11-11-11-11-11-11-11-12-x-12-x-12-x-12---12-12-|
E|-9--9--9--9--9--9--9--9--10-x-10-x-10-x-10---10-10-|x2

Then play RIFF A (1:19), VERSEx8 (1:36),
PRE-CHORUSx2 (2:11), CHORUSx2 (2:29) then play

FILL (2:46)

E|-----------------|
B|-----------------|
G|-----------------|
D|-----------------|
A|-----------------|
E|-x-x-x-x-x-x-x-x-|

Then play PRE-CHORUS, then RIFF A
            
Submit corrections

↑ Back to top | Tablatures and chords for acoustic guitar and electric guitar, ukulele, drums are parodies/interpretations of the original songs. You may use it for private study, scholarship, research or language learning purposes only