Home » D » Dragon Ash »

Dragon Ash - Monkey Punch Monkey Kick Tabs

Artists:  A B C D E F G H I J K L M N O P Q R S T U V W X Y Z # 

Monkey Punch Monkey Kick Tabs

(ver. 1) Click to play this song!
Dragon Ash

Great song about our monkey friends

INTRO (0:00, 3:19)

E|-------------------------------|
B|-------------------------------|
G|-------------------------------|
D|------9------9-------9------9--|
A|------7------7-------7------7--|
E|--0-0----0-0-----0-0----0-0----|x4

CHORUS (0:08, 0:51, 1:51, 3:06)

E|---------------------------------|
B|---------------------------------|
G|---------------------------------|
D|------9-------9-------9-------9--|
A|------7-------7-------7-------7--|
E|--0-0---0-0-0----0-0----0-0-0----|x8

VERSE (0:36, 1:05, 2:20)

E|-------------------------------->
B|-------------------------------->
G|------------------9-9-9---9-9-9->
D|--7-7-7---9-9-9---9-9-9---9-9-9->
A|--7-7-7---9-9-9---7-7-7---7-7-7->
E|--5-5-5---7-7-7----------------->

E>-------------------------------->
B>-------------------------------->
G>------------------9-9-9---9-9-9->
D>--7-7-7---9-9-9---9-9-9---9-9-9->
A>--7-7-7---9-9-9---7-7-7---7-7-7->
E>--5-5-5---7-7-7----------------->

E>-------------------------------->
B>-------------------------------->
G>------------------9-9-9---6-6-6->
D>--7-7-7---9-9-9---9-9-9---6-6-6->
A>--7-7-7---9-9-9---7-7-7---4-4-4->
E>--5-5-5---7-7-7----------------->

E>--------------------------------|
B>--------------------------------|
G>------------------9-9-9---------|
D>--7-7-7---9-9-9---9-9-9-x-9-x-9-|
A>--7-7-7---9-9-9---7-7-7-x-9-x-9-|
E>--5-5-5---7-7-7---------x-7-x-7-|

Then play CHORUS, VERSE

BRIDGE (1:20, 2:34)

E|--------------------------------------------------->
B|--------------------------------------------------->
G|-------------------9--9---9-9-9-------------------->
D|--11-11-11-11-11---9--9---9-9-9---9-9-9-9-9-9-9-10->
A|--11-11-11-11-11---7--7---7-7-7---9-9-9-9-9-9-9-10->
E|--9--9--9--9--9-------------------7-7-7-7-7-7-7-8-->

E>---------------------------------------------------|
B>---------------------------------------------------|
G>-------------------9--9---9-9-9--------------------|
D>--11-11-11-11-11---9--9---9-9-9---9-9-9-9-9-9-9-9--|
A>--11-11-11-11-11---7--7---7-7-7---9-9-9-9-9-9-9-9--|
E>--9--9--9--9--9-------------------7-7-7-7-7-7-7-7--|

VERSE B (1:35, 2:48)

E|--------------------------------|
B|--------------------------------|
G|------------------9-9-9---6-6-6-|
D|--7-7-7---9-9-9---9-9-9---6-6-6-|
A|--7-7-7---9-9-9---7-7-7---4-4-4-|
E|--5-5-5---7-7-7-----------------|x3

E|--------------------------------|
B|--------------------------------|
G|------------------9-------------|
D|--7-7-7---9-9-9---9-------------|
A|--7-7-7---9-9-9---7-------------|
E|--5-5-5---7-7-7-----------------|x4

Then play CHORUS, VERSE, BRIDGE, VERSE B, CHORUS, INTRO
            
Submit corrections

↑ Back to top | Tablatures and chords for acoustic guitar and electric guitar, ukulele, drums are parodies/interpretations of the original songs. You may use it for private study, scholarship, research or language learning purposes only