Home » D » Dragon Ash »

Dragon Ash - Maximum Of Life Tabs

Artists:  A B C D E F G H I J K L M N O P Q R S T U V W X Y Z # 

Maximum Of Life Tabs

(ver. 1) Click to play this song!
Dragon Ash

It's this guitar riff played over and over, one of my favourite songs on the album

E|-----------0----------0-----|
B|----0----------0---------0--|
G|-2-----2----------2---------|
D|----------------------------|
A|----------------------------|
E|----------------------------|
 |    (volume swells)         |
E|----12----------------------|
B|---------------12-----------|
G|----------------------------|
D|----------------------------|
A|----------------------------|
E|----------------------------|
            
Submit corrections

↑ Back to top | Tablatures and chords for acoustic guitar and electric guitar, ukulele, drums are parodies/interpretations of the original songs. You may use it for private study, scholarship, research or language learning purposes only