Home » D » Dragon Ash »

Dragon Ash - Fever Tabs

Artists:  A B C D E F G H I J K L M N O P Q R S T U V W X Y Z # 

Fever Tabs

(ver. 1) Click to play this song!
Dragon Ash

Just a few riffs played over and over

MAIN RIFF (0:25, 1:27, 2:28, 3:48, 5:10)

E|-------------------------------------------------->
B|-------------------------------------------------->
G|-------------------------------------------------->
D|--7--7--7--7--7--7--7--7--4--4--4--4--4--4--4--4-->
A|--7--7--7--7--7--7--7--7--4--4--4--4--4--4--4--4-->
E|--5--5--5--5--5--5--5--5--2--2--2--2--2--2--2--2-->
 |                                                  >
E|-------------------------------------------------->
B|-9h10--10--9h10--10--10---9h10--10--9h10--10--10-->
G|-------------------------------------------------->
D|-------------------------------------------------->
A|-------------------------------------------------->
E|-------------------------------------------------->

E>--------------------------------------------------|
B>--------------------------------------------------|
G>--7--7--7--7--7--7--7--7--9--9--9--9--9--9--9--9--|
D>--7--7--7--7--7--7--7--7--9--9--9--9--9--9--9--9--|
A>--5--5--5--5--5--5--5--5--7--7--7--7--7--7--7--7--|
E>--5--5--5--5--5--5--5--5--7--7--7--7--7--7--7--7--|
 >                                                  |
E>--------------------------------------------------|
B>-9h10--10--9h10--10--10---9h10--10--9h10--10--10--|
G>--------------------------------------------------|
D>--------------------------------------------------|
A>--------------------------------------------------|
E>--------------------------------------------------|x2

MAIN RIFF VARIATION (2:07, 3:28, 4:50)

E|-------------------------------------------------->
B|-------------------------------------------------->
G|-------------------------------------------------->
D|-------------------------------------------------->
A|--7--7--7--7--7--7--7--7--4--4--4--4--4--4--4--4-->
E|--5--5--5--5--5--5--5--5--2--2--2--2--2--2--2--2-->

E>--------------------------------------------------|
B>--------------------------------------------------|
G>--------------------------------------------------|
D>--7--7--7--7--7--7--7--7--9--9--9--9--9--9--9--9--|
A>--5--5--5--5--5--5--5--5--7--7--7--7--7--7--7--7--|
E>--------------------------------------------------|x2

FILL (4:18)

E|-----------------------------|
B|--(12)--fdbck----------------|
G|-----------------------------|
D|-----------------------------|
A|-----------------------------|
E|-----------------------------|
            
Submit corrections

↑ Back to top | Tablatures and chords for acoustic guitar and electric guitar, ukulele, drums are parodies/interpretations of the original songs. You may use it for private study, scholarship, research or language learning purposes only