Home » D » Down »

Down - The Seed Tabs

Artists:  A B C D E F G H I J K L M N O P Q R S T U V W X Y Z # 

The Seed Tabs

(ver. 2) Click to play this song!
Down
[Riff A]
C#|--------------------------------------------------|
G#|--------------------------------------------------|
E |--------------------------------------------------|
B |--------------------------------------------------|
F#|-------------------------------------------x-x----|
B |--0h2-0h2-0h2-0h2-2h333----0h2-0h2-0h2-0---x-x----|

[Riff B]
C#|----------------------------------|
G#|----------------------------------|
E |-------------------7---------8----|
B |-------------------7---------7----|
F#|--2--3----5--------5---------5----|
B |--2--3----5-----------------------|


[Riff C]

C#|--------------------------------------------------------------------------------------------------------|

G#|--------------------------------------------------------------------------------------------------------|
E 
|--------------------------------------------------------------------------------------------------------|
B 
|--------------------------------------------------------------------------------------------------------|

F#|--7----5----3---5----3----5---5~~----0---3---5----7----5----3---5-----3---5----5----0---3----5----------|
B 
|----------------------------------------------------------------------------------------------------3b--|
                                                                                           Very heavy bend

C#|----------------------------------------------------------------------------------------------------|
G#|----------------------------------------------------------------------------------------------------|
E |----------------------------------------------------------------------------------------------------|
B |----------------------------------------------------------------------------------------------------|
F#|--7-----5----3----5----3----5----5~~-----------3-----------7-----5-----3-----5----3----5---5~~------|
B |---------------------------------------3-4-5---5-4-3------------------------------------------------|            
Submit corrections

↑ Back to top | Tablatures and chords for acoustic guitar and electric guitar, ukulele, drums are parodies/interpretations of the original songs. You may use it for private study, scholarship, research or language learning purposes only