» » »

Down - Ghost Along The Mississippi Tabs

Artists:  A B C D E F G H I J K L M N O P Q R S T U V W X Y Z # 

Ghost Along The Mississippi Tabs

(ver. 1) Click to play this song!
Down
 Rating:
4/5 (7 votes)


 Ghost Along The Mississippi lessons Tabs too difficult? Try these video lessons and learn fast
 
                Band:  Down

Copyright (c)  Elektra 2002




Tuned down 1 and a half steps to C#

    Intro riff
C#|-----------------------------------------------------------------|
G#|-----------------------------------------------------------------|
E |-----------------------------------------------------------------|
B |------------5p0--------------------------------------------------| X2
F#|----------------5p0----------------------------------------------|
C#|--0-0-0-0------------6p0--4p0--5h6-------------------------------|
   pm. . . .

|-------------------------------------------------------------------|
|-------------------------------------------------------------------|
|-------------------------------------------------------------------|
|--x-x---x-x-x---x-x-x---x-x-x--------------------------------------|
|--x-x---x-x-x---x-x-x---x-x-x--------------------------------------|
|--x-x---x-x-x---x-x-x---x-x-x----12\-------------------------------|

   Main riff
|-------------------------------------------------------------------|
|-------------------------------------------------------------------|
|-------------------------------------------------------------------|
|----------5p0------------------------------5p0---------------------|
|--------------5p0------------------------------5p0-----------------|
|-0-0-0-0----------6p0--4p0--5h6----0-0-0-0---------6p0--4p0--0h1---|
pm. . . .                           . . . .

|-------------------------------------------------------------------|
|-------------------------------------------------------------------|
|-------------------------------------------------------------------|
|-x-x------5p0------------------------------5p0---------------------|
|-x-x----------5p0------------------------------5p0-----------------|
|-x-x---0----------6p0--4p0--5h6----0-0-0-0---------6p0--4p0--0h1---|
pm      .                           . . . .

|-------------------------------------------------------------------|
|-------------------------------------------------------------------|
|-------------------------------------------------------------------|
|----------5p0------------------------------5p0---------------------|
|--------------5p0------------------------------5p0-----------5h7---|
|-0-0-0-0----------6p0--4p0--5h6----0-0-0-0---------6p0--4p0--------|
pm. . . .                           . . . .

  Rhythm Fig 1  (In the morning it takes me quite a while........
|-------------------------------------------------------------------|
|-------------------------------------------------------------------|
|-------------------------------------------------------------------|
|-----5-------5-----4----4-----2----4-----5-------------------------|
|-7---7-------7-----5----5-----3----5-----7-------------------------|
|-0---0-----------------------------------0-------------------------|
lt
pm.

|-------------------------------------------------------------------|
|-------------------------------------------------------------------|
|-------------------------------------------------------------------|
|-----5-------5-----------------------------------------------------|
|-7---7-------7-----0----0---0--------------------------------------|
|-0---0-------------3----3---3-/-5---5------------------------------|
lt
pm.                 .

  Fill(w/ echo effect)
|--12b------12b------12b--------------------------------------------|
|-------------------------------------------------------------------|
|-------------------------------------------------------------------|
|-------------------------------------------------------------------|
|-------------------------------------------------------------------|
|-------------------------------------------------------------------|

  Chorus     (I'm dying prematurely.......)
|-------------------------------------------------------------------|
|-------------------------------------------------------------------|
|-------------------------------------------------------------------|
|--10\9-------------------------------------------------------------|X2
|--8-\7----9----9----10\9----10\9-----------------------------------|
|----------7----7----8-\7----8-\7-----------------------------------|

  Chorus 2   (I'm vying to kill..)       (A ghost along the.....)
|-------------------------------------------------------------------|
|-------------------------------------------------------------------|
|-------------------------------------------------------------------|
|--------------------------5-5-5-5----------------------------------|
|------0---------0---------7-7-7-7---------0-------0----------------|
|--0---3----3----2----1----0-0-0-0-----0---3---3---2---1/-----------|


|-----------------------------------------------------------------|
|-----------------------------------------------------------------|
|-----------------------------------------------------------------|
|------------5p0--------------------------------------------------| X2
|----------------5p0----------------------------------------------|
|--0-0-0-0------------6p0--4p0--5h6-------------------------------|
   pm. . . .

|-------------------------------------------------------------------|
|-------------------------------------------------------------------|
|-------------------------------------------------------------------|
|--x-x---x-x-x---x-x-x---x-x-x--------------------------------------|
|--x-x---x-x-x---x-x-x---x-x-x--------------------------------------|
|--x-x---x-x-x---x-x-x---x-x-x----12\-------------------------------|



Lead
|----------------------------------------------------------------------------|
|-15p12----12----------------------------------------------------------------|
|-------15----15p14-15p14p12--14p12----12------------------------------------|
|-----------------------------------15----15p14--15p14p12--14(bend 1/4 step--|
|----------------------------------------------------------------------------|
|----------------------------------------------------------------------------|


|-------------------------------------------------------------------|
|-------------------------------------------------------------------|
|-14b-14--14---12h14p12-------------------12------------------------|
|-----------------------15--12---15---15------15----12-----15b15----|
|-------------------------------------------------------------------|
|-------------------------------------------------------------------|


|-------------------------------------------------------------------|
|-------------------------------------------------------------------|
|------------------------------------------------12h14h15-----------|
|---------------------------------------12h14h15--------------------|
|-7/9--9--9/10--10--10/12--12--12h14h15-----------------------------|
|-------------------------------------------------------------------|

                                          hold bend               release bend
|-------------------------------------------------------------------|
|------15-------17--------------------------------------------------|
|-14b------14--------14-----14b--14b---14b--14--14--14--14--14--14--|
|-------------------------------------------------------------------|
|-------------------------------------------------------------------|
|-------------------------------------------------------------------|


|-------------------------------------------------------------------|
|-------------------------------------------------------------------|
|-14\12-------------------------------------------------------------|
|--------15---------------------------------------------------------|
|-------------------------------------------------------------------|
|-------------------------------------------------------------------|

Listen to the song to figure out the order and rhythm of each part
            
Submit corrections



        Ghost Along The Mississippi lessons Hard to play? Try these video lessons and learn fast Ghost Along The Mississippi lessons
        
↑ Back to top | Tablatures and chords for acoustic guitar and electric guitar, ukulele, drums are parodies/interpretations of the original songs. You may use it for private study, scholarship, research or language learning purposes only