» » »

Doves - Winter Hill Bass

Artists:  A B C D E F G H I J K L M N O P Q R S T U V W X Y Z # 

Winter Hill Bass

(ver. 1) Click to play this song!
Doves
 Rating:
4.3/5 (6 votes)

 Winter Hill lessons Tabs too difficult? Try these video lessons and learn fast
 
                Intro (0.37)
G|---------------------|
D|---------------------|
A|---------------------|
E|-33333333-3333/77\\\-|

(0.41 - 0.57)
G|------------------------------------------|
D|------------------------------------------|
A|----------------------------3(x16)--------|
E|-1(x16)-3(x13)-55\7---1(x16)-------3(x16)-|

(0.57 - 1.14)
G|------------------------------------------------------|
D|-----------------------------------------3h5-55555555-|
A|----------------------------3(x16)--------------------|
E|-1(x16)-3(x13)-55\7---1(x16)-------3(x8)--------------|

(1.14 - 1.30)
G|--------------------------------------------------------------|
D|--------------------------------------------------------------|
A|-5(x8)5h7--33333-----------------8(x8)-7(x5)-7/8/9/10-10(x16)-|
E|-----------------1-3-5--3(x16)--------------------------------|


Pre Chorus (1.30 - 1.38)
G|--------------------------------------------|
D|--------------------------------------------|
A|-77-777-777-777\99\10---55-555-555-555\10/9-|
E|--------------------------------------------|


Chorus (1.38 - 2.13)
G|----------------------------------------------------------------------------------------|
D|----------------------------------------------------------------------------------------|
A|-77-777-777-775----55-555-555-55---5-7-------------------------------------10h12-141414-|
E|---------------7-----------------7-------5-5-55-3/5/7--5-5-55/7/88888-10h12-------------|

G|---------------------------------------------------------------------------------------|
D|---------------------------------------------7-7-7-7-5/7/9--7-7-5-7-5------------------|
A|-77-777-777-775----55-55---5-7-55-55---5-7----------------------------7\\--------------|
E|----------------7--------7-----------7------------------------------------5-5-55-3/5/7-|

G|--------------------------|
D|--------------5-----------|
A|--------2/3-----3-2-3-----|
E|-5-5-55---------------3~--|


2nd Verse (2.13 - 2.46)
G|-----------------------------------------------------------------------------------|
D|----------------------------------------------------------------------3h5-55555555-|
A|---------------------------------------------33-333--------------------------------|
E|-11-111-111-111--1/33-333-333-33/7--11-111-1--------1/3/5\--33-333-33--------------|

G|------------------------------------------------------------------------------------------|
D|----------------------------------5555-33-5-----------------------------------------------|
A|-5(x8)5h7--33333----------------------------8(x8)-7(x5)-7/8/9/101010-8h101010\\\----------|
E|-----------------1-3-5--33-333-33------------------------------------------------33333333-|


Chorus 2 (2.46 - 3.21)
G|----------------------------------------------------------------------------------------|
D|----------------------------------------------------------------------------------------|
A|-77-777-777-775----55-555-555-55---5-7-------------------------------------10h12-141414-|
E|---------------7-----------------7-------5-5-55-3/5/7--5-5-55/7/88888-10h12-------------|

G|------------------------------------------------------------------------|
D|------------------------------------------------------------------------|
A|-77-777-777-775----55-55---5-7-55-55---5-7------------------------------|
E|----------------7--------7-----------7-------5-5-55-3/5/7-5-5-55-3/5/7--|

G|-----------------------------------------------|
D|-7-7-7-7-5/7/9--7-7-5-7-5-------555------------|
A|---------------------------7\\------3-2-3------|
E|-------------------------------------------3~~-|

Bass enters at 3.39
G|---------------------------------------------------------------------|
D|-3~------------3-3-------------33333333---------------------55555555-|
A|-----3~-------------3~-------------------333333333-------------------|
E|----------3~------------3~-33----------------------33333333----------|

(4.04 - 4 20)
G|---------------------------------------------------------------------------------|
D|---------------------------------------------------------------------------------|
A|-88-----88------33-----33------1010--------1010-------1010---------101010/121212-|
E|----108----108-----53-----53--------12-10-------12-10------12-10-----------------|

G|-------------------------------------------------------------------------|
D|-------------------------------------------------------------------------|
A|-88-----88------33-----33------1010--------1010--------10101010/12121212-|
E|----108----108-----53-----53--------12-10-------12-10--------------------|

 (4.20 - end)
G|-----------------------------------------------------------------------------------------|
D|----------------------------------------------------------------------------5------------|
A|-7/9/10/1414/15\14---5/7/9/121212-10-12h14p12---------------------------5h7---7--5-7-5-7-|
E|------------------------------------------------5-7-57-8-10/12--8/10/12------------------|

G|-----------------------------------------------------------------------------|
D|------------------------------------------------7-7-7-7-5/7/9--7-7-5-7-5-----|
A|-7/9/10/1414/15\14---5/7/9/121212-10-12h14p12----------------------------7\\-|
E|-----------------------------------------------------------------------------|

G|-------------------------------------------------|
D|----------------------------5~--5-3---/-5~--5-3--|
A|-------------------------------------------------|
E|-5-5-55-3/5/7-5-5-55-3/5/7-----------------------|
            
Submit corrections


        Winter Hill lessons Hard to play? Try these video lessons and learn fast Winter Hill lessons
        
↑ Back to top | Tablatures and chords for acoustic guitar and electric guitar, ukulele, drums are parodies/interpretations of the original songs. You may use it for private study, scholarship, research or language learning purposes only