» » »

Doves - One Of These Days Tabs

Artists:  A B C D E F G H I J K L M N O P Q R S T U V W X Y Z # 

One Of These Days Tabs

(ver. 1) Click to play this song!
Doves
 Rating:
4/5 (4 votes)

 One Of These Days lessons Tabs too difficult? Try these video lessons and learn fast
 
                New song by doves (williams/goodwin/williams), only played live so far. this is tabbed from the version played at glastonbury 2003


INTRO

e---------------------
B---------------------
G-7---7---7---7------7-------7-------7-------7----7-----7-------
D---9---9---9---9b11---9b11----9b11----9b11----9-----9----9--
A---------------------
E---------------------

INTRO PT. 2 and Verse

e-----------------|-----------------|
B-----------------|-----------------|
G-7---7---7---7---|-7---7---7---7---|
D---9---9---9---9-|---7---7---7---7-|
A-----------------|-----------------|
E-----------------|-----------------|

e----------------|---------------|
B----------------|---------------|
G-6---6---6---6--|-6---6---6---6-|
D---8---9---9---8|---8---9---9---|
A----------------|---------------|
E----------------|---------------|

e--------------0-----|-----------------|
B---0---0---0------0-|-----------------|
G-2---2---2------2---|-1----1-2----4---|
D--------------------|---2------2------|
A--------------------|-----------------|
E--------------------|-----------------|

BRIDGE

7--6
8--7
7--6
9--8
10-9
x--x

GUITAR SOLO
e-----------------
B-0-2-3-5-7-8-8p7---7------
G-----------------9---6/14-14-14h16-16-14-14h16-16
D-------------------------
A--------------------------
E-----------------------------

Then VERSE again 

BRIDGE 2

7--6--5--4--3
8--7--5--5--3
7--6--6--4--4
9--8--7--6--5
10-9--7--7--5
x--x--5--x--3

e-3-5-7-9-10-10-10-10-----9-----------
B-------------------------11----------------
G-------------------------11----------
D-------------------------11--------
A-------------------------9---------
E-------------------------9-----

SOLO WITH A BIT EXTRA (twice, but bit after line is omitted second time round)

e--------------------------------------------------|
B-0-2-3-5-7-8-8p7---7------------------------------|-14
G-----------------9---6/14-14-14h16-16-14-14h16-16-|---14
D--------------------------------------------------|-----16-14
A--------------------------------------------------|-----------17-16-14
E--------------------------------------------------|

OUTRO

7--6--5--4--3--2--2
8--7--5--5--3--3--2
7--6--6--4--4--2--3
9--8--7--6--5--4--4
10-9--7--7--5--5--4
x--x--5--x--3--x--x
            
Submit corrections


        One Of These Days lessons Hard to play? Try these video lessons and learn fast One Of These Days lessons
        
↑ Back to top | Tablatures and chords for acoustic guitar and electric guitar, ukulele, drums are parodies/interpretations of the original songs. You may use it for private study, scholarship, research or language learning purposes only