» » »

Doves - Kingdom Of Rust Bass

Artists:  A B C D E F G H I J K L M N O P Q R S T U V W X Y Z # 

Kingdom Of Rust Bass

(ver. 1) Click to play this song!
Doves
 Rating:
4/5 (5 votes)

 Kingdom Of Rust lessons Tabs too difficult? Try these video lessons and learn fast
 
                This song is much harder then I thought it would be to work out, the timing is
tricky but anyway here it is

Intro
G|----------------------------------------------------------------------------|
D|-5/8-5/8-5/8-5/8---5/8-5/8-5/8-5------5/8-5/8-5/8-5-------5/8-5/8-5/8-5-----|
A|---------------------------------5-8----------------5-8-----------------5-8-|
E|----------------------------------------------------------------------------|

0.18
G|--------------------------------------8---8---8---8----10--10--10---10-|
D|-5/8-5/8-5/8-5/8-------------------------------------------------------|
A|-------------------8/12-8/12-8/12---------------------6---6---6---8----|
E|------------------------------------8---8---8---8----------------------|

0.37
G|-------------------------|
D|-5-555-5--5-5---5-3------|
A|---------------------5-3-|
E|-------------------------|

0.41
G|------------------------------5-----10-8-7-5-------------------------|
D|----------------------3-3-3-3---3-3--------------------------------1-|
A|------------------5----------------------------3-3-3-3-31-3-3-3-3-3--|
E|-3-3-3-3-3-3-3-3-----------------------------------------------------|

G|-------------------------------------------|
D|---------------------------5-5-5-5-5-5-5-5-|
A|-3-3-3-3-31--3-3-3-1-0---------------------|
E|-----------------------3-------------------|

Chorus 1 - 1.04
G|-----------------------|
D|-3~---3--1--0----------|
A|--------------3~---3~--|
E|-----------------------|

1.13
G|---------------------------------------------------|
D|-5/8-5/8-5/8--5-8-5-------5/8-5/8-5/8---5/10\8\7\5-|
A|--------------------8------------------------------|
E|----------------------8----------------------------|

Verse
1.22
G|----------------------------------------10\8\7\5-----------------------------------|
D|-5/8-5/8-5/8---555-3-0-----------------------------------------------8---8---8---7-|
A|-------------------------8/12-8/12-8/12----------3/6-3/6-3/6-3/6---6---6---6---8---|
E|-----------------------------------------------------------------------------------|

1.40
G|-------------------------------------------------------------------------------|
D|-5/8-5/8-5/8--5/8\7\5\3------------------8\7\5\3-------------------------------|
A|-------------------------8/12-8/12-8/12-----------3/6-3--3/6----3/6-3--3/6-----|
E|-------------------------------------------------------------6-------------6---|

G|----------------------------------------------|
D|-----------5-------------5/8-5/8-5/8--8\7\5\3-|
A|-3-3-3-3/5---3-3-3-1-0------------------------|
E|-----------------------3----------------------|

Chorus 2 2.04
G|-10-10-10----10---10-10--10-8--7-8---5-5-5---5---5-5-5\3\2-0---3-3-3--3---3---3-3-2-0---|
D|----------10---10--------------------------3---5------------------------3---3---------3-|
A|----------------------------------------------------------------------------------------|
E|----------------------------------------------------------------------------------------|

G|----------------------------------------------------------------------|
D|-3-3-3---3-----3-3-3---3--------55---55---55---55-------5---5555555---|
A|-------3---3---------3---3---33---33---33---33------5-----5---------5-|
E|--------------------------------------------------3---3---------------|

Bridge 2.31
G|-----------------------3----------------10\8\7/8---------------------------------------------|
D|-5555555---5555-5-3-5----3333333--3333-------------------------------------------------------|
A|---------5----------------------3----------------3333333-1-33333333-3333333-1-3333-3-1-0-----|
E|------------------------------------------------------------------------------------------1--|

G|-------------------------------------------------------------------------------|
D|-55555555-55555555---3333333---3333333-----------------------------------------|
A|-----------------------------3-----------3333333-1-33333333-3333333-1-33333333-|
E|-------------------------------------------------------------------------------|

3.12
G|-10-10-10----10----10-10-10-8-7-8---5-5-5-5/7-5-5---5-3-2-0-----------------------------|
D|----------10----10---------------------------------------------5-5-5-5-5-5-5--3-5-3-----|
A|------------------------------------------------------------------------------------5-3-|
E|----------------------------------------------------------------------------------------|

G|---------3----------------|
D|-5-5-5-5---5-5--3-5-3-----|
A|----------------------5-3-|
E|--------------------------|

3.31
G|-------------------------|-----------------|
D|------5-3~---5------5----|------5555/8\7\5-|
A|---------------3~-----3~-|-----------------|
E|-3~----------------------|-3~--------------|

Chorus 3.58
G|----------------------------------------------------------------3-2-0---|
D|-3-3-3---3-----3-3-3---3-------5--------------------------------------3-|
A|-------3---3---------3---3---3---3--1-3-1-3-3-3-3---1111111-1111--------|
E|------------------------------------------------------------------------|

G|-----------------------------5-5-5----5-7--5-5--5-7-8---3333333------------|
D|-3-3-3---3-----3-3-3---3-----------5----------5-----------------3----------|
A|-------3---3---------3---3----------------------------------------11111111-|
E|---------------------------------------------------------------------------|

G|-----------------------------5-5-5-------5-5--5/7/8---------3-3--3-2-0---|
D|-3-3-3---3-----3-3-3---3-----------------------------------------------3-|
A|-------3---3---------3---3---------1-3-5--------------1-1-1--------------|
E|-------------------------------------------------------------------------|

Outro 4.40
G|-10-10-10----10----10-10-10-8-7-8---5-5-5---5-7---5-5---5/7/8---3-3-3-|
D|----------10----10------------------------5-----------5---------------|
A|----------------------------------------------------------------------|
E|----------------------------------------------------------------------|
            
Submit corrections


        Kingdom Of Rust lessons Hard to play? Try these video lessons and learn fast Kingdom Of Rust lessons
        
↑ Back to top | Tablatures and chords for acoustic guitar and electric guitar, ukulele, drums are parodies/interpretations of the original songs. You may use it for private study, scholarship, research or language learning purposes only