» » »

Doves - Jetstream Tabs

Artists:  A B C D E F G H I J K L M N O P Q R S T U V W X Y Z # 

Jetstream Tabs

(ver. 1) Click to play this song!
Doves
 Rating:
4.3/5 (6 votes)

 Jetstream lessons Tabs too difficult? Try these video lessons and learn fast
 
                Thought i'd attempt this one since no one has tabbed this amazing song. This is 
the album/studio version - the live version is different

Intro
e|-------------------------------------------|
B|---------5--------------8------------5---8-|
G|-----5-7----------5-7-9----------5-7-------|
D|-5h7------7---5h7------------5h7-------7---|
A|-0------------0--------------0-------------|
E|-------------------------------------------|

0.30 - 1.00
e|--------------------------------------------------------------------------------------------|
B|--------------------------------------------------------------------------------------------|
G|-7-7--7-9-7----7-7-9-7----------------------------7-7--7-9-7----7-7-9-7---------------------|
D|-------------7----------9-9--9-10-9--7-7--7-9-7---------------7----------9-9--9-10-9--5-5-7-|
A|--------------------------------------------------------------------------------------------|
E|--------------------------------------------------------------------------------------------|

Main Riff (1.00 - 1.30, 2.07 - 2.40, 3.48 - 4.20)
Guitar 1
e|------------------|
B|---------10-------|
G|-----7-9------7-9-|
D|-7----------------|
A|------------------|
E|------------------|

Guitar 2      
    x4                  (plays this after 2.07)
e|-----------18-------|-------18-------18-------|
B|----16-18-----16-18-|-16-18----16-18----16-18-|
G|-14-----------------|-------------------------|
D|--------------------|-------------------------|
A|--------------------|-------------------------|
E|--------------------|-------------------------|

Bridge (2.48 - 3.17)

Guitar 1
                x2                                               2nd time
e|-----------------------------|--------------------------------|-----|
B|-----------------------------|--------------------------------|-----|
G|-----------------------------|--------------------------------|-----|
D|-12---10-12---10-12-14-12-10-|-9------9----9-10---------------|-----|
A|-----------------------------|-----10---10--------10-10-12-12-|--9--|
E|-----------------------------|--------------------------------|-----|

Guitar 2
e|-------18-------18-------|
B|-16-18----16-18----16-18-|
G|-------------------------|
D|-------------------------|
A|-------------------------|
E|-------------------------|


Outro (4.37 -  5.22)
                                          x2
e|---------------------------------|-------------------------|
B|---------------------------------|-------------------------|
G|-------------------------7-------|-------------------------|
D|-3-------5-------7-------7-(x16)-|-3-------5-------7-------|
A|-3-(x16)-5-(x16)-7-(x16)-5-------|-3-(x16)-5-(x16)-7-(x32)-|
E|-1-------3-------5---------------|-1-------3-------5-------|
            
Submit corrections


        Jetstream lessons Hard to play? Try these video lessons and learn fast Jetstream lessons
        
↑ Back to top | Tablatures and chords for acoustic guitar and electric guitar, ukulele, drums are parodies/interpretations of the original songs. You may use it for private study, scholarship, research or language learning purposes only