Home » D » Doves »

Doves - Black And White Town Bass

Artists:  A B C D E F G H I J K L M N O P Q R S T U V W X Y Z # 

Black And White Town Bass

(ver. 1) Click to play this song!
Doves
Intro/Verse 1
G|--------------------|
D|--------------------|
A|-6666---------------|
E|------1111-44444444-|

Pre Chorus
G|-------------------------------------|
D|-------------------------------------|
A|----------------------------88888888-|
E|-66666666-44444444-22222222----------|

Chorus
G|--------------------------------------------------------------------------------|
D|--------------------------------------------------------------------------------|
A|-66666666-44444444-66666666-444-----444------6666666-44444444-------------------|
E|---------------------------------4-6-----4-6------------------44444444-44444444-|

Bass rests then enters at 1.27
G|----------------------------|
D|----------------------------|
A|----------6666--------------|
E|-44444444-----1111-44444444-|

Verse 2
G|-------------------------------------------------------------------------------|
D|-------------------------------------------------------------------------------|
A|-6666-----------------6666---------------666/11\8888----------6666/8888-11(x8)-|
E|------1111-44444444--------1111-44444646-------------44444444------------------|

Bridge 
         Then at 2.09 (x2)
G|----|------------------|
D|----|------------------|
A|-6~-|-6666/8888/11(x8)-|
E|----|------------------|

Chorus 2
G|----------------------------------------------------------------------------------------|
D|------------------------------------------------------------------------66-66-66-66-6-6-|
A|-66666666-44444444-66666666-444-----444------6666666-44444444---------------------------|
E|---------------------------------4-6-----4-6------------------44444444------------------|

Guitar Solo
G|----------------------------------------------------------------------------------|
D|----------------------------------------------------------------------------------|
A|-6666------------------6666-----------------666/11\8888----------6666/8888/11(x8)-|
E|------1111-444444646--------1111-44444444---------------44444444------------------|

Bridge 2 
G|------------------------------------------------------------|
D|------------------------------------------------------------|
A|---------------------88888888-66666666-88\66\44\66-44444444-|
E|-6~---4~---2~---2~------------------------------------------|

Chorus 3
G|-------------------------------------------|
D|-------------------------------------------|
A|-66666666-444444-----66666666-444444-------|
E|-----------------4-6-----------------6-4-6-|

Outro
G|-------------------------------------------------------------------------------------|
D|--------------------------------------------------------------8/10/11----------------|
A|-6666----------------6666-----------------666/11\8888-11(x5)------------6~-----------|
E|------1111-44444646--------1111-44444444-------------------------------------1~---4~-|


Intro/Verse 1 (x8)
Pre Chorus
Chorus
Verse 2
Bridge 
Pre Chorus
Chorus 2
Guitar Solo
Bridge 2
Chorus 3
Outro
            
Submit corrections

↑ Back to top | Tablatures and chords for acoustic guitar and electric guitar, ukulele, drums are parodies/interpretations of the original songs. You may use it for private study, scholarship, research or language learning purposes only