» » »

Dover - Better Day Tabs

Artists:  A B C D E F G H I J K L M N O P Q R S T U V W X Y Z # 

Better Day Tabs

(ver. 2) Click to play this song!
Dover
 Rating:
4/5 (4 votes)

 Better Day lessons Tabs too difficult? Try these video lessons and learn fast
 
                Tuning: Standard (E A D G B E)


   G      E     B     F     D

E|-----|-----|-----|-----|-----|
B|-----|-----|-----|-----|-----|
G|-----|--9--|-----|-----|--8--|
D|--6--|--9--|--9--|--4--|--8--|
A|--6--|--7--|--9--|--4--|--6--|
E|--4--|-----|--7--|--2--|-----|


VERSE

G             E             B
All i had to do was to be nice 

              F
But, no! no! no!

                   G 
I just ***ed it up!
   
                  E 
It's been like that for my whole life

    F                E
And if i was born again

              B 
It'd be the same

D         B       E 
One thing at a time

            B 
Yeah!, i lied

            D 
Yeah!, i'm scared 

G           E              B        F
1, 2, 3, 4, 5, 6, 7, 8, 9, 10, 11, 12

            G 
13 seconds left

                 E          B 
It's the time i had to run away

     F                   E 
But i forgot and woke up late 

           B
Like everyday

D          B      E
One thing at a time

            B 
Yeah!, i lied

              D 
Yeah!, i'm scared


CHOURS

               E 
I just quit it all

         B 
I'm not ashamed

                 D                G 
I would rather wait for a better day

                   E               B 
If you would have been with me that day

                     D              G 
I know things would be a diferent way 


first SOLO



G|---1--3--4-4-4-4--1--3--4-4-4--4/8--6--4--3-3------||

G|--/8--6-6--4-4--4-|



2.VERSE

CHOURS

SOLO



G|---1--3--4-4-4-4--1--3--4-4-4--4/8--6--4--3-3------||

B|-----------------------------------------12--12----||
G|--/8--6-6--4-4--4--6--8--9-9-9--9/11--11/13--13----||

G|---13\11--8-8--/13--11--8--6--8-8--8--4--6--8-8-8--||



CHOURS

SOLO
            
Submit corrections


        Better Day lessons Hard to play? Try these video lessons and learn fast Better Day lessons
        
↑ Back to top | Tablatures and chords for acoustic guitar and electric guitar, ukulele, drums are parodies/interpretations of the original songs. You may use it for private study, scholarship, research or language learning purposes only