Home » D » Doug Sahm »

Doug Sahm - I Dont Want To Go Home Chords

Artists:  A B C D E F G H I J K L M N O P Q R S T U V W X Y Z # 

I Dont Want To Go Home Chords

(ver. 1) Click to play this song!
Doug Sahm
Intro:

                  Em           A                         D      Dmaj7    D6
e|---------------------------------------------------------------------------|
B|---------------------------------------------------------------------------|
G|---------------------------------------------------------------------------|
D|-7h9--7--------------------------------------------------------------------|
A|---------9/7--5--7---------------7—7h9--7--5------5h7--5-------------------|
E|----------------------------------------------5h7--------------------------|

                      Em        A                         D    Dmaj7     D6
e|---------------------------------------------------------------------------|
B|---------------------------------------------------------------------------|
G|---------------------------------------------------------------------------|
D|---------------------------------------------------------------------------|
A|------5------5------5h7-----------7-7h9--7--5------5h7--5------------------|
E|--5h7----5h7----5h7----------------------------5h7-------------------------|



Verse:
 (no chord)               Em
I've been traveling over miles
A7                    D          Dmaj7       D6      Dmaj7
     And I don't want to go home
                     Em
And I stayed up for days
A7                D        Dmaj7     D6     Dmaj7
     Why, oh why do I roam
                D
It's not that I don't love her
                           G
And the Lord knows that I do
        C              G
But the changes in the city
              D
Made fool of me
            C
I got too free
                    G
Forgot I had a fair ??


Interlude (intro riff:

Em        A        D    Dmaj7    D6    Dmaj7 (x2


Verse:
 (no chord)               Em
I've been traveling over miles
A7                    D          Dmaj7       D6      Dmaj7
     And I don't want to go home
                     Em
And I stayed up for days
A7                D        Dmaj7     D6     Dmaj7
     Why, oh why do I roam
                D
It's not that I don't love her
                           G
And the Lord knows that I do
        C              G
But the changes in the city
              D
Made fool of me
            C
I got too free
                    G
Forgot I had a fair ??


Outro (fade out with intro riff:

Em        A        D    Dmaj7    D6    Dmaj7

            
Submit corrections

↑ Back to top | Tablatures and chords for acoustic guitar and electric guitar, ukulele, drums are parodies/interpretations of the original songs. You may use it for private study, scholarship, research or language learning purposes only